ISO-10303-21;
HEADER;
/* Generated by software containing ST-Developer
 * from STEP Tools, Inc. (www.steptools.com) 
 */

FILE_DESCRIPTION(
/* description */ (''),
/* implementation_level */ '2;1');

FILE_NAME(
/* name */ 'S:\\Marketing\\CAD Models\\MET\\MET081C.stp',
/* time_stamp */ '2018-11-12T10:38:13-06:00',
/* author */ ('scottg'),
/* organization */ ('FasTest,Inc.'),
/* preprocessor_version */ 'ST-DEVELOPER v16.1',
/* originating_system */ 'Autodesk Inventor 2016',
/* authorisation */ '');

FILE_SCHEMA (('AUTOMOTIVE_DESIGN { 1 0 10303 214 3 1 1 }'));
ENDSEC;

DATA;
#10=MECHANICAL_DESIGN_GEOMETRIC_PRESENTATION_REPRESENTATION('',(#14,#15,
#16,#17,#18,#19,#20),#435);
#11=SHAPE_REPRESENTATION_RELATIONSHIP('SRR','None',#447,#12);
#12=ADVANCED_BREP_SHAPE_REPRESENTATION('',(#13),#434);
#13=MANIFOLD_SOLID_BREP('Solid1',#243);
#14=STYLED_ITEM('',(#457),#237);
#15=STYLED_ITEM('',(#457),#238);
#16=STYLED_ITEM('',(#458),#239);
#17=STYLED_ITEM('',(#457),#240);
#18=STYLED_ITEM('',(#457),#241);
#19=STYLED_ITEM('',(#457),#242);
#20=STYLED_ITEM('',(#456),#13);
#21=CONICAL_SURFACE('',#261,0.333746867632356,25.0000000000004);
#22=CONICAL_SURFACE('',#269,0.355954710891199,1.78333);
#23=CONICAL_SURFACE('',#271,0.39425,45.);
#24=CONICAL_SURFACE('',#282,0.66,44.9999999999999);
#25=CONICAL_SURFACE('',#285,0.66,45.0000000000001);
#26=TOROIDAL_SURFACE('',#259,0.287476575686199,0.0515);
#27=PLANE('',#248);
#28=PLANE('',#252);
#29=PLANE('',#253);
#30=PLANE('',#257);
#31=PLANE('',#263);
#32=PLANE('',#267);
#33=PLANE('',#275);
#34=PLANE('',#277);
#35=FACE_BOUND('',#76,.T.);
#36=FACE_BOUND('',#78,.T.);
#37=FACE_BOUND('',#80,.T.);
#38=FACE_BOUND('',#84,.T.);
#39=FACE_BOUND('',#86,.T.);
#40=FACE_BOUND('',#88,.T.);
#41=FACE_BOUND('',#90,.T.);
#42=FACE_BOUND('',#92,.T.);
#43=FACE_BOUND('',#94,.T.);
#44=FACE_BOUND('',#96,.T.);
#45=FACE_BOUND('',#98,.T.);
#46=FACE_BOUND('',#100,.T.);
#47=FACE_BOUND('',#102,.T.);
#48=FACE_BOUND('',#104,.T.);
#49=FACE_BOUND('',#106,.T.);
#50=FACE_BOUND('',#108,.T.);
#51=FACE_BOUND('',#110,.T.);
#52=FACE_BOUND('',#112,.T.);
#53=FACE_BOUND('',#114,.T.);
#54=FACE_OUTER_BOUND('',#75,.T.);
#55=FACE_OUTER_BOUND('',#77,.T.);
#56=FACE_OUTER_BOUND('',#79,.T.);
#57=FACE_OUTER_BOUND('',#81,.T.);
#58=FACE_OUTER_BOUND('',#82,.T.);
#59=FACE_OUTER_BOUND('',#83,.T.);
#60=FACE_OUTER_BOUND('',#85,.T.);
#61=FACE_OUTER_BOUND('',#87,.T.);
#62=FACE_OUTER_BOUND('',#89,.T.);
#63=FACE_OUTER_BOUND('',#91,.T.);
#64=FACE_OUTER_BOUND('',#93,.T.);
#65=FACE_OUTER_BOUND('',#95,.T.);
#66=FACE_OUTER_BOUND('',#97,.T.);
#67=FACE_OUTER_BOUND('',#99,.T.);
#68=FACE_OUTER_BOUND('',#101,.T.);
#69=FACE_OUTER_BOUND('',#103,.T.);
#70=FACE_OUTER_BOUND('',#105,.T.);
#71=FACE_OUTER_BOUND('',#107,.T.);
#72=FACE_OUTER_BOUND('',#109,.T.);
#73=FACE_OUTER_BOUND('',#111,.T.);
#74=FACE_OUTER_BOUND('',#113,.T.);
#75=EDGE_LOOP('',(#175));
#76=EDGE_LOOP('',(#176));
#77=EDGE_LOOP('',(#177));
#78=EDGE_LOOP('',(#178));
#79=EDGE_LOOP('',(#179));
#80=EDGE_LOOP('',(#180));
#81=EDGE_LOOP('',(#181));
#82=EDGE_LOOP('',(#182));
#83=EDGE_LOOP('',(#183));
#84=EDGE_LOOP('',(#184));
#85=EDGE_LOOP('',(#185));
#86=EDGE_LOOP('',(#186));
#87=EDGE_LOOP('',(#187));
#88=EDGE_LOOP('',(#188));
#89=EDGE_LOOP('',(#189));
#90=EDGE_LOOP('',(#190));
#91=EDGE_LOOP('',(#191));
#92=EDGE_LOOP('',(#192));
#93=EDGE_LOOP('',(#193));
#94=EDGE_LOOP('',(#194));
#95=EDGE_LOOP('',(#195));
#96=EDGE_LOOP('',(#196));
#97=EDGE_LOOP('',(#197));
#98=EDGE_LOOP('',(#198));
#99=EDGE_LOOP('',(#199));
#100=EDGE_LOOP('',(#200));
#101=EDGE_LOOP('',(#201));
#102=EDGE_LOOP('',(#202));
#103=EDGE_LOOP('',(#203));
#104=EDGE_LOOP('',(#204));
#105=EDGE_LOOP('',(#205));
#106=EDGE_LOOP('',(#206));
#107=EDGE_LOOP('',(#207));
#108=EDGE_LOOP('',(#208));
#109=EDGE_LOOP('',(#209));
#110=EDGE_LOOP('',(#210));
#111=EDGE_LOOP('',(#211));
#112=EDGE_LOOP('',(#212));
#113=EDGE_LOOP('',(#213));
#114=EDGE_LOOP('',(#214));
#115=CIRCLE('',#246,0.5635);
#116=CIRCLE('',#247,0.5635);
#117=CIRCLE('',#249,0.45);
#118=CIRCLE('',#251,0.45);
#119=CIRCLE('',#254,0.234);
#120=CIRCLE('',#256,0.234);
#121=CIRCLE('',#258,0.287476575686199);
#122=CIRCLE('',#260,0.334151426718587);
#123=CIRCLE('',#262,0.333342308546125);
#124=CIRCLE('',#264,0.5635);
#125=CIRCLE('',#266,0.5635);
#126=CIRCLE('',#268,0.353409421782399);
#127=CIRCLE('',#270,0.3585);
#128=CIRCLE('',#272,0.43);
#129=CIRCLE('',#274,0.43);
#130=CIRCLE('',#276,0.64);
#131=CIRCLE('',#278,0.64);
#132=CIRCLE('',#280,0.68);
#133=CIRCLE('',#281,0.68);
#134=CIRCLE('',#284,0.68);
#135=VERTEX_POINT('',#372);
#136=VERTEX_POINT('',#374);
#137=VERTEX_POINT('',#377);
#138=VERTEX_POINT('',#380);
#139=VERTEX_POINT('',#384);
#140=VERTEX_POINT('',#387);
#141=VERTEX_POINT('',#390);
#142=VERTEX_POINT('',#393);
#143=VERTEX_POINT('',#396);
#144=VERTEX_POINT('',#399);
#145=VERTEX_POINT('',#402);
#146=VERTEX_POINT('',#405);
#147=VERTEX_POINT('',#408);
#148=VERTEX_POINT('',#411);
#149=VERTEX_POINT('',#414);
#150=VERTEX_POINT('',#417);
#151=VERTEX_POINT('',#420);
#152=VERTEX_POINT('',#423);
#153=VERTEX_POINT('',#425);
#154=VERTEX_POINT('',#429);
#155=EDGE_CURVE('',#135,#135,#115,.T.);
#156=EDGE_CURVE('',#136,#136,#116,.T.);
#157=EDGE_CURVE('',#137,#137,#117,.T.);
#158=EDGE_CURVE('',#138,#138,#118,.T.);
#159=EDGE_CURVE('',#139,#139,#119,.T.);
#160=EDGE_CURVE('',#140,#140,#120,.T.);
#161=EDGE_CURVE('',#141,#141,#121,.T.);
#162=EDGE_CURVE('',#142,#142,#122,.T.);
#163=EDGE_CURVE('',#143,#143,#123,.T.);
#164=EDGE_CURVE('',#144,#144,#124,.T.);
#165=EDGE_CURVE('',#145,#145,#125,.T.);
#166=EDGE_CURVE('',#146,#146,#126,.T.);
#167=EDGE_CURVE('',#147,#147,#127,.T.);
#168=EDGE_CURVE('',#148,#148,#128,.T.);
#169=EDGE_CURVE('',#149,#149,#129,.T.);
#170=EDGE_CURVE('',#150,#150,#130,.T.);
#171=EDGE_CURVE('',#151,#151,#131,.T.);
#172=EDGE_CURVE('',#152,#152,#132,.T.);
#173=EDGE_CURVE('',#153,#153,#133,.T.);
#174=EDGE_CURVE('',#154,#154,#134,.T.);
#175=ORIENTED_EDGE('',*,*,#155,.T.);
#176=ORIENTED_EDGE('',*,*,#156,.F.);
#177=ORIENTED_EDGE('',*,*,#155,.F.);
#178=ORIENTED_EDGE('',*,*,#157,.T.);
#179=ORIENTED_EDGE('',*,*,#158,.T.);
#180=ORIENTED_EDGE('',*,*,#157,.F.);
#181=ORIENTED_EDGE('',*,*,#158,.F.);
#182=ORIENTED_EDGE('',*,*,#159,.T.);
#183=ORIENTED_EDGE('',*,*,#160,.T.);
#184=ORIENTED_EDGE('',*,*,#159,.F.);
#185=ORIENTED_EDGE('',*,*,#161,.T.);
#186=ORIENTED_EDGE('',*,*,#160,.F.);
#187=ORIENTED_EDGE('',*,*,#162,.T.);
#188=ORIENTED_EDGE('',*,*,#161,.F.);
#189=ORIENTED_EDGE('',*,*,#163,.T.);
#190=ORIENTED_EDGE('',*,*,#162,.F.);
#191=ORIENTED_EDGE('',*,*,#164,.T.);
#192=ORIENTED_EDGE('',*,*,#163,.F.);
#193=ORIENTED_EDGE('',*,*,#165,.T.);
#194=ORIENTED_EDGE('',*,*,#164,.F.);
#195=ORIENTED_EDGE('',*,*,#165,.F.);
#196=ORIENTED_EDGE('',*,*,#166,.T.);
#197=ORIENTED_EDGE('',*,*,#167,.T.);
#198=ORIENTED_EDGE('',*,*,#166,.F.);
#199=ORIENTED_EDGE('',*,*,#168,.T.);
#200=ORIENTED_EDGE('',*,*,#167,.F.);
#201=ORIENTED_EDGE('',*,*,#169,.F.);
#202=ORIENTED_EDGE('',*,*,#168,.F.);
#203=ORIENTED_EDGE('',*,*,#170,.F.);
#204=ORIENTED_EDGE('',*,*,#169,.T.);
#205=ORIENTED_EDGE('',*,*,#171,.F.);
#206=ORIENTED_EDGE('',*,*,#156,.T.);
#207=ORIENTED_EDGE('',*,*,#172,.F.);
#208=ORIENTED_EDGE('',*,*,#173,.F.);
#209=ORIENTED_EDGE('',*,*,#172,.T.);
#210=ORIENTED_EDGE('',*,*,#171,.T.);
#211=ORIENTED_EDGE('',*,*,#173,.T.);
#212=ORIENTED_EDGE('',*,*,#174,.F.);
#213=ORIENTED_EDGE('',*,*,#170,.T.);
#214=ORIENTED_EDGE('',*,*,#174,.T.);
#215=CYLINDRICAL_SURFACE('',#245,0.5635);
#216=CYLINDRICAL_SURFACE('',#250,0.45);
#217=CYLINDRICAL_SURFACE('',#255,0.234);
#218=CYLINDRICAL_SURFACE('',#265,0.5635);
#219=CYLINDRICAL_SURFACE('',#273,0.43);
#220=CYLINDRICAL_SURFACE('',#279,0.68);
#221=CYLINDRICAL_SURFACE('',#283,0.68);
#222=ADVANCED_FACE('',(#54,#35),#215,.F.);
#223=ADVANCED_FACE('',(#55,#36),#27,.F.);
#224=ADVANCED_FACE('',(#56,#37),#216,.T.);
#225=ADVANCED_FACE('',(#57),#28,.F.);
#226=ADVANCED_FACE('',(#58),#29,.F.);
#227=ADVANCED_FACE('',(#59,#38),#217,.F.);
#228=ADVANCED_FACE('',(#60,#39),#30,.F.);
#229=ADVANCED_FACE('',(#61,#40),#26,.T.);
#230=ADVANCED_FACE('',(#62,#41),#21,.F.);
#231=ADVANCED_FACE('',(#63,#42),#31,.F.);
#232=ADVANCED_FACE('',(#64,#43),#218,.F.);
#233=ADVANCED_FACE('',(#65,#44),#32,.F.);
#234=ADVANCED_FACE('',(#66,#45),#22,.F.);
#235=ADVANCED_FACE('',(#67,#46),#23,.F.);
#236=ADVANCED_FACE('',(#68,#47),#219,.F.);
#237=ADVANCED_FACE('',(#69,#48),#33,.T.);
#238=ADVANCED_FACE('',(#70,#49),#34,.T.);
#239=ADVANCED_FACE('',(#71,#50),#220,.T.);
#240=ADVANCED_FACE('',(#72,#51),#24,.T.);
#241=ADVANCED_FACE('',(#73,#52),#221,.T.);
#242=ADVANCED_FACE('',(#74,#53),#25,.T.);
#243=CLOSED_SHELL('',(#222,#223,#224,#225,#226,#227,#228,#229,#230,#231,
#232,#233,#234,#235,#236,#237,#238,#239,#240,#241,#242));
#244=AXIS2_PLACEMENT_3D('placement',#370,#286,#287);
#245=AXIS2_PLACEMENT_3D('',#371,#288,#289);
#246=AXIS2_PLACEMENT_3D('',#373,#290,#291);
#247=AXIS2_PLACEMENT_3D('',#375,#292,#293);
#248=AXIS2_PLACEMENT_3D('',#376,#294,#295);
#249=AXIS2_PLACEMENT_3D('',#378,#296,#297);
#250=AXIS2_PLACEMENT_3D('',#379,#298,#299);
#251=AXIS2_PLACEMENT_3D('',#381,#300,#301);
#252=AXIS2_PLACEMENT_3D('',#382,#302,#303);
#253=AXIS2_PLACEMENT_3D('',#383,#304,#305);
#254=AXIS2_PLACEMENT_3D('',#385,#306,#307);
#255=AXIS2_PLACEMENT_3D('',#386,#308,#309);
#256=AXIS2_PLACEMENT_3D('',#388,#310,#311);
#257=AXIS2_PLACEMENT_3D('',#389,#312,#313);
#258=AXIS2_PLACEMENT_3D('',#391,#314,#315);
#259=AXIS2_PLACEMENT_3D('',#392,#316,#317);
#260=AXIS2_PLACEMENT_3D('',#394,#318,#319);
#261=AXIS2_PLACEMENT_3D('',#395,#320,#321);
#262=AXIS2_PLACEMENT_3D('',#397,#322,#323);
#263=AXIS2_PLACEMENT_3D('',#398,#324,#325);
#264=AXIS2_PLACEMENT_3D('',#400,#326,#327);
#265=AXIS2_PLACEMENT_3D('',#401,#328,#329);
#266=AXIS2_PLACEMENT_3D('',#403,#330,#331);
#267=AXIS2_PLACEMENT_3D('',#404,#332,#333);
#268=AXIS2_PLACEMENT_3D('',#406,#334,#335);
#269=AXIS2_PLACEMENT_3D('',#407,#336,#337);
#270=AXIS2_PLACEMENT_3D('',#409,#338,#339);
#271=AXIS2_PLACEMENT_3D('',#410,#340,#341);
#272=AXIS2_PLACEMENT_3D('',#412,#342,#343);
#273=AXIS2_PLACEMENT_3D('',#413,#344,#345);
#274=AXIS2_PLACEMENT_3D('',#415,#346,#347);
#275=AXIS2_PLACEMENT_3D('',#416,#348,#349);
#276=AXIS2_PLACEMENT_3D('',#418,#350,#351);
#277=AXIS2_PLACEMENT_3D('',#419,#352,#353);
#278=AXIS2_PLACEMENT_3D('',#421,#354,#355);
#279=AXIS2_PLACEMENT_3D('',#422,#356,#357);
#280=AXIS2_PLACEMENT_3D('',#424,#358,#359);
#281=AXIS2_PLACEMENT_3D('',#426,#360,#361);
#282=AXIS2_PLACEMENT_3D('',#427,#362,#363);
#283=AXIS2_PLACEMENT_3D('',#428,#364,#365);
#284=AXIS2_PLACEMENT_3D('',#430,#366,#367);
#285=AXIS2_PLACEMENT_3D('',#431,#368,#369);
#286=DIRECTION('axis',(0.,0.,1.));
#287=DIRECTION('refdir',(1.,0.,0.));
#288=DIRECTION('center_axis',(-1.,0.,0.));
#289=DIRECTION('ref_axis',(0.,1.,0.));
#290=DIRECTION('center_axis',(-1.,0.,0.));
#291=DIRECTION('ref_axis',(0.,0.,1.));
#292=DIRECTION('center_axis',(-1.,-4.85273686776822E-35,-6.58712809727844E-50));
#293=DIRECTION('ref_axis',(0.,1.,0.));
#294=DIRECTION('center_axis',(-1.,0.,0.));
#295=DIRECTION('ref_axis',(0.,0.,1.));
#296=DIRECTION('center_axis',(-1.,0.,0.));
#297=DIRECTION('ref_axis',(0.,0.,1.));
#298=DIRECTION('center_axis',(-1.,0.,0.));
#299=DIRECTION('ref_axis',(0.,1.,0.));
#300=DIRECTION('center_axis',(-1.,0.,0.));
#301=DIRECTION('ref_axis',(0.,0.,1.));
#302=DIRECTION('center_axis',(-1.,0.,0.));
#303=DIRECTION('ref_axis',(0.,0.,1.));
#304=DIRECTION('center_axis',(1.,0.,0.));
#305=DIRECTION('ref_axis',(0.,0.,-1.));
#306=DIRECTION('center_axis',(-1.,0.,0.));
#307=DIRECTION('ref_axis',(0.,0.,1.));
#308=DIRECTION('center_axis',(-1.,0.,0.));
#309=DIRECTION('ref_axis',(0.,1.,0.));
#310=DIRECTION('center_axis',(-1.,0.,0.));
#311=DIRECTION('ref_axis',(0.,0.,1.));
#312=DIRECTION('center_axis',(1.,0.,0.));
#313=DIRECTION('ref_axis',(0.,0.,-1.));
#314=DIRECTION('center_axis',(-1.,0.,0.));
#315=DIRECTION('ref_axis',(0.,0.,1.));
#316=DIRECTION('center_axis',(-1.,0.,0.));
#317=DIRECTION('ref_axis',(0.,0.,1.));
#318=DIRECTION('center_axis',(-1.,0.,0.));
#319=DIRECTION('ref_axis',(0.,0.,1.));
#320=DIRECTION('center_axis',(1.,0.,0.));
#321=DIRECTION('ref_axis',(0.,1.,0.));
#322=DIRECTION('center_axis',(-1.,0.,0.));
#323=DIRECTION('ref_axis',(0.,0.,1.));
#324=DIRECTION('center_axis',(1.,0.,0.));
#325=DIRECTION('ref_axis',(0.,0.,-1.));
#326=DIRECTION('center_axis',(-1.,0.,0.));
#327=DIRECTION('ref_axis',(0.,0.,1.));
#328=DIRECTION('center_axis',(-1.,0.,0.));
#329=DIRECTION('ref_axis',(0.,1.,0.));
#330=DIRECTION('center_axis',(-1.,0.,0.));
#331=DIRECTION('ref_axis',(0.,0.,1.));
#332=DIRECTION('center_axis',(-1.,0.,0.));
#333=DIRECTION('ref_axis',(0.,0.,1.));
#334=DIRECTION('center_axis',(-1.,0.,0.));
#335=DIRECTION('ref_axis',(0.,0.,1.));
#336=DIRECTION('center_axis',(-1.,0.,0.));
#337=DIRECTION('ref_axis',(0.,1.,0.));
#338=DIRECTION('center_axis',(-1.,0.,0.));
#339=DIRECTION('ref_axis',(0.,0.,1.));
#340=DIRECTION('center_axis',(-1.,0.,0.));
#341=DIRECTION('ref_axis',(0.,1.,0.));
#342=DIRECTION('center_axis',(-1.,0.,0.));
#343=DIRECTION('ref_axis',(0.,0.,1.));
#344=DIRECTION('center_axis',(-1.,0.,0.));
#345=DIRECTION('ref_axis',(0.,1.,0.));
#346=DIRECTION('center_axis',(1.,4.85273686776822E-35,6.58712809727844E-50));
#347=DIRECTION('ref_axis',(0.,1.,0.));
#348=DIRECTION('center_axis',(-1.,-4.85273686776822E-35,-6.58712809727844E-50));
#349=DIRECTION('ref_axis',(0.,0.,1.));
#350=DIRECTION('center_axis',(1.,4.85273686776822E-35,6.58712809727844E-50));
#351=DIRECTION('ref_axis',(4.85273686776822E-35,-1.,1.32183412814668E-83));
#352=DIRECTION('center_axis',(1.,4.85273686776822E-35,6.58712809727844E-50));
#353=DIRECTION('ref_axis',(0.,0.,-1.));
#354=DIRECTION('center_axis',(-1.,-4.85273686776822E-35,-6.58712809727844E-50));
#355=DIRECTION('ref_axis',(4.85273686776822E-35,-1.,1.32183412814668E-83));
#356=DIRECTION('center_axis',(1.,4.85273686776822E-35,6.58712809727844E-50));
#357=DIRECTION('ref_axis',(3.39691580742113E-34,1.,1.23541382147237E-83));
#358=DIRECTION('center_axis',(1.,4.85273686776822E-35,6.58712809727844E-50));
#359=DIRECTION('ref_axis',(-3.39691580742113E-34,-1.,-1.23541382147237E-83));
#360=DIRECTION('center_axis',(-1.,3.39691580742113E-34,-6.58712809727844E-50));
#361=DIRECTION('ref_axis',(3.39691580742113E-34,1.,1.23541382147237E-83));
#362=DIRECTION('center_axis',(-1.,-4.85273686776825E-35,-6.58712809727844E-50));
#363=DIRECTION('ref_axis',(-1.51464211326455E-34,-1.,4.46397228231774E-86));
#364=DIRECTION('center_axis',(1.,4.85273686776822E-35,6.58712809727844E-50));
#365=DIRECTION('ref_axis',(3.39691580742113E-34,1.,1.23541382147237E-83));
#366=DIRECTION('center_axis',(-1.,-4.85273686776822E-35,-6.58712809727844E-50));
#367=DIRECTION('ref_axis',(-3.39691580742113E-34,-1.,-1.23541382147237E-83));
#368=DIRECTION('center_axis',(1.,4.85273686776822E-35,6.58712809727844E-50));
#369=DIRECTION('ref_axis',(-1.51464211326455E-34,-1.,4.46397228231753E-86));
#370=CARTESIAN_POINT('',(0.,0.,0.));
#371=CARTESIAN_POINT('Origin',(0.5855,0.,0.));
#372=CARTESIAN_POINT('',(0.53,0.5635,0.));
#373=CARTESIAN_POINT('Origin',(0.53,0.,0.));
#374=CARTESIAN_POINT('',(0.641,0.5635,0.));
#375=CARTESIAN_POINT('Origin',(0.641,0.,0.));
#376=CARTESIAN_POINT('Origin',(0.53,0.45,0.));
#377=CARTESIAN_POINT('',(0.53,0.45,0.));
#378=CARTESIAN_POINT('Origin',(0.53,0.,0.));
#379=CARTESIAN_POINT('Origin',(0.535,0.,0.));
#380=CARTESIAN_POINT('',(0.54,0.45,0.));
#381=CARTESIAN_POINT('Origin',(0.54,0.,0.));
#382=CARTESIAN_POINT('Origin',(0.54,0.,0.));
#383=CARTESIAN_POINT('Origin',(0.247051595034355,0.234,0.));
#384=CARTESIAN_POINT('',(0.247051595034355,0.234,0.));
#385=CARTESIAN_POINT('Origin',(0.247051595034355,0.,0.));
#386=CARTESIAN_POINT('Origin',(0.161025797517178,0.,0.));
#387=CARTESIAN_POINT('',(0.0750000000000001,0.234,0.));
#388=CARTESIAN_POINT('Origin',(0.075,0.,0.));
#389=CARTESIAN_POINT('Origin',(0.075,0.287476575686199,0.));
#390=CARTESIAN_POINT('',(0.075,0.287476575686199,0.));
#391=CARTESIAN_POINT('Origin',(0.075,0.,0.));
#392=CARTESIAN_POINT('Origin',(0.0235,0.,0.));
#393=CARTESIAN_POINT('',(0.00173515952035406,0.334151426718587,0.));
#394=CARTESIAN_POINT('Origin',(0.00173515952035405,0.,0.));
#395=CARTESIAN_POINT('Origin',(0.000867579760177026,0.,0.));
#396=CARTESIAN_POINT('',(0.,0.333342308546125,0.));
#397=CARTESIAN_POINT('Origin',(0.,0.,0.));
#398=CARTESIAN_POINT('Origin',(-6.76609106726144E-17,0.5635,0.));
#399=CARTESIAN_POINT('',(-6.76609106726144E-17,0.5635,0.));
#400=CARTESIAN_POINT('Origin',(-8.74191357972564E-17,0.,0.));
#401=CARTESIAN_POINT('Origin',(-0.0270000000000001,0.,0.));
#402=CARTESIAN_POINT('',(-0.054,0.5635,0.));
#403=CARTESIAN_POINT('Origin',(-0.054,0.,0.));
#404=CARTESIAN_POINT('Origin',(-0.054,0.353409421782399,0.));
#405=CARTESIAN_POINT('',(-0.054,0.353409421782399,0.));
#406=CARTESIAN_POINT('Origin',(-0.054,0.,0.));
#407=CARTESIAN_POINT('Origin',(-0.13575,0.,0.));
#408=CARTESIAN_POINT('',(-0.2175,0.3585,0.));
#409=CARTESIAN_POINT('Origin',(-0.2175,0.,0.));
#410=CARTESIAN_POINT('Origin',(-0.25325,0.,0.));
#411=CARTESIAN_POINT('',(-0.289,0.43,0.));
#412=CARTESIAN_POINT('Origin',(-0.289,0.,0.));
#413=CARTESIAN_POINT('Origin',(-0.309,0.,0.));
#414=CARTESIAN_POINT('',(-0.329,0.43,0.));
#415=CARTESIAN_POINT('Origin',(-0.329,0.,0.));
#416=CARTESIAN_POINT('Origin',(-0.329,0.34,-2.87920522824953E-66));
#417=CARTESIAN_POINT('',(-0.329,0.64,7.83748066446321E-17));
#418=CARTESIAN_POINT('Origin',(-0.329,-1.5790289414816E-35,-2.87920522824953E-66));
#419=CARTESIAN_POINT('Origin',(0.641,0.34,6.38951425436008E-50));
#420=CARTESIAN_POINT('',(0.641,0.64,-7.83748066446322E-17));
#421=CARTESIAN_POINT('Origin',(0.641,3.12812582025359E-35,6.38951425436008E-50));
#422=CARTESIAN_POINT('Origin',(0.156,7.74548439385995E-36,3.19475712718004E-50));
#423=CARTESIAN_POINT('',(0.601,0.68,8.32732320599216E-17));
#424=CARTESIAN_POINT('Origin',(0.601,2.93401634554285E-35,6.12602913046895E-50));
#425=CARTESIAN_POINT('',(0.101,-0.68,8.32732320599216E-17));
#426=CARTESIAN_POINT('Origin',(0.101,5.07647911658739E-36,2.83246508182973E-50));
#427=CARTESIAN_POINT('Origin',(0.621,3.03107108289821E-35,6.25777169241451E-50));
#428=CARTESIAN_POINT('Origin',(0.156,7.74548439385995E-36,3.19475712718004E-50));
#429=CARTESIAN_POINT('',(-0.289,0.68,-8.32732320599216E-17));
#430=CARTESIAN_POINT('Origin',(-0.289,-1.38491946677087E-35,2.63485123891137E-51));
#431=CARTESIAN_POINT('Origin',(-0.309,-1.48197420412623E-35,1.31742561945568E-51));
#432=UNCERTAINTY_MEASURE_WITH_UNIT(LENGTH_MEASURE(0.000393700787401575),
#436,'DISTANCE_ACCURACY_VALUE',
'Maximum model space distance between geometric entities at asserted c
onnectivities');
#433=UNCERTAINTY_MEASURE_WITH_UNIT(LENGTH_MEASURE(1.E-6),#437,
'DISTANCE_ACCURACY_VALUE',
'Maximum model space distance between geometric entities at asserted c
onnectivities');
#434=(
GEOMETRIC_REPRESENTATION_CONTEXT(3)
GLOBAL_UNCERTAINTY_ASSIGNED_CONTEXT((#432))
GLOBAL_UNIT_ASSIGNED_CONTEXT((#436,#442,#439))
REPRESENTATION_CONTEXT('','3D')
);
#435=(
GEOMETRIC_REPRESENTATION_CONTEXT(3)
GLOBAL_UNCERTAINTY_ASSIGNED_CONTEXT((#433))
GLOBAL_UNIT_ASSIGNED_CONTEXT((#437,#442,#439))
REPRESENTATION_CONTEXT('','3D')
);
#436=(
CONVERSION_BASED_UNIT('__CONSTANT UNIT inch',#438)
LENGTH_UNIT()
NAMED_UNIT(#441)
);
#437=(
LENGTH_UNIT()
NAMED_UNIT(*)
SI_UNIT(.MILLI.,.METRE.)
);
#438=LENGTH_MEASURE_WITH_UNIT(LENGTH_MEASURE(25.4),#437);
#439=(
NAMED_UNIT(*)
SI_UNIT($,.STERADIAN.)
SOLID_ANGLE_UNIT()
);
#440=DIMENSIONAL_EXPONENTS(0.,0.,0.,0.,0.,0.,0.);
#441=DIMENSIONAL_EXPONENTS(1.,0.,0.,0.,0.,0.,0.);
#442=(
CONVERSION_BASED_UNIT('degree',#444)
NAMED_UNIT(#440)
PLANE_ANGLE_UNIT()
);
#443=(
NAMED_UNIT(*)
PLANE_ANGLE_UNIT()
SI_UNIT($,.RADIAN.)
);
#444=PLANE_ANGLE_MEASURE_WITH_UNIT(PLANE_ANGLE_MEASURE(0.01745329252),#443);
#445=SHAPE_DEFINITION_REPRESENTATION(#446,#447);
#446=PRODUCT_DEFINITION_SHAPE('',$,#449);
#447=SHAPE_REPRESENTATION('',(#244),#434);
#448=PRODUCT_DEFINITION_CONTEXT('part definition',#453,'design');
#449=PRODUCT_DEFINITION('MET081C','MET081C',#450,#448);
#450=PRODUCT_DEFINITION_FORMATION('',$,#455);
#451=PRODUCT_RELATED_PRODUCT_CATEGORY('MET081C','MET081C',(#455));
#452=APPLICATION_PROTOCOL_DEFINITION('international standard',
'automotive_design',2009,#453);
#453=APPLICATION_CONTEXT(
'Core Data for Automotive Mechanical Design Process');
#454=PRODUCT_CONTEXT('part definition',#453,'mechanical');
#455=PRODUCT('MET081C','MET081C',$,(#454));
#456=PRESENTATION_STYLE_ASSIGNMENT((#459));
#457=PRESENTATION_STYLE_ASSIGNMENT((#460));
#458=PRESENTATION_STYLE_ASSIGNMENT((#461));
#459=SURFACE_STYLE_USAGE(.BOTH.,#462);
#460=SURFACE_STYLE_USAGE(.BOTH.,#463);
#461=SURFACE_STYLE_USAGE(.BOTH.,#464);
#462=SURFACE_SIDE_STYLE('',(#465));
#463=SURFACE_SIDE_STYLE('',(#466));
#464=SURFACE_SIDE_STYLE('',(#467));
#465=SURFACE_STYLE_FILL_AREA(#468);
#466=SURFACE_STYLE_FILL_AREA(#469);
#467=SURFACE_STYLE_FILL_AREA(#470);
#468=FILL_AREA_STYLE('',(#471));
#469=FILL_AREA_STYLE('',(#472));
#470=FILL_AREA_STYLE('',(#473));
#471=FILL_AREA_STYLE_COLOUR('',#474);
#472=FILL_AREA_STYLE_COLOUR('',#475);
#473=FILL_AREA_STYLE_COLOUR('',#476);
#474=COLOUR_RGB('',0.63921568627451,0.63921568627451,0.686274509803922);
#475=COLOUR_RGB('',0.956862745098039,0.956862745098039,0.956862745098039);
#476=COLOUR_RGB('',0.580392156862745,0.580392156862745,0.592156862745098);
ENDSEC;
END-ISO-10303-21;
