ISO-10303-21;
HEADER;
/* Generated by software containing ST-Developer
 * from STEP Tools, Inc. (www.steptools.com) 
 */

FILE_DESCRIPTION(
/* description */ (''),
/* implementation_level */ '2;1');

FILE_NAME(
/* name */ 'S:\\Marketing\\CAD Models\\MET\\MET121C.stp',
/* time_stamp */ '2018-11-06T07:42:10-06:00',
/* author */ ('scottg'),
/* organization */ ('FasTest,Inc.'),
/* preprocessor_version */ 'ST-DEVELOPER v16.1',
/* originating_system */ 'Autodesk Inventor 2016',
/* authorisation */ '');

FILE_SCHEMA (('AUTOMOTIVE_DESIGN { 1 0 10303 214 3 1 1 }'));
ENDSEC;

DATA;
#10=MECHANICAL_DESIGN_GEOMETRIC_PRESENTATION_REPRESENTATION('',(#16,#17,
#15,#14,#19,#18,#21,#20),#436);
#11=SHAPE_REPRESENTATION_RELATIONSHIP('SRR','None',#448,#12);
#12=ADVANCED_BREP_SHAPE_REPRESENTATION('',(#13),#435);
#13=MANIFOLD_SOLID_BREP('Solid1',#244);
#14=STYLED_ITEM('',(#458),#237);
#15=STYLED_ITEM('',(#458),#238);
#16=STYLED_ITEM('',(#458),#239);
#17=STYLED_ITEM('',(#459),#240);
#18=STYLED_ITEM('',(#458),#241);
#19=STYLED_ITEM('',(#458),#242);
#20=STYLED_ITEM('',(#458),#243);
#21=STYLED_ITEM('',(#457),#13);
#22=CONICAL_SURFACE('',#261,0.426246867632356,24.9999999999993);
#23=CONICAL_SURFACE('',#269,0.460876917459733,1.78329999999999);
#24=CONICAL_SURFACE('',#271,0.49925,45.);
#25=CONICAL_SURFACE('',#283,0.82,44.9999999999999);
#26=CONICAL_SURFACE('',#286,0.82,45.0000000000002);
#27=TOROIDAL_SURFACE('',#259,0.379976575686199,0.0515);
#28=PLANE('',#249);
#29=PLANE('',#253);
#30=PLANE('',#257);
#31=PLANE('',#263);
#32=PLANE('',#267);
#33=PLANE('',#275);
#34=PLANE('',#276);
#35=PLANE('',#278);
#36=FACE_BOUND('',#77,.T.);
#37=FACE_BOUND('',#79,.T.);
#38=FACE_BOUND('',#81,.T.);
#39=FACE_BOUND('',#84,.T.);
#40=FACE_BOUND('',#86,.T.);
#41=FACE_BOUND('',#88,.T.);
#42=FACE_BOUND('',#90,.T.);
#43=FACE_BOUND('',#92,.T.);
#44=FACE_BOUND('',#94,.T.);
#45=FACE_BOUND('',#96,.T.);
#46=FACE_BOUND('',#98,.T.);
#47=FACE_BOUND('',#100,.T.);
#48=FACE_BOUND('',#102,.T.);
#49=FACE_BOUND('',#105,.T.);
#50=FACE_BOUND('',#107,.T.);
#51=FACE_BOUND('',#109,.T.);
#52=FACE_BOUND('',#111,.T.);
#53=FACE_BOUND('',#113,.T.);
#54=FACE_BOUND('',#115,.T.);
#55=FACE_OUTER_BOUND('',#76,.T.);
#56=FACE_OUTER_BOUND('',#78,.T.);
#57=FACE_OUTER_BOUND('',#80,.T.);
#58=FACE_OUTER_BOUND('',#82,.T.);
#59=FACE_OUTER_BOUND('',#83,.T.);
#60=FACE_OUTER_BOUND('',#85,.T.);
#61=FACE_OUTER_BOUND('',#87,.T.);
#62=FACE_OUTER_BOUND('',#89,.T.);
#63=FACE_OUTER_BOUND('',#91,.T.);
#64=FACE_OUTER_BOUND('',#93,.T.);
#65=FACE_OUTER_BOUND('',#95,.T.);
#66=FACE_OUTER_BOUND('',#97,.T.);
#67=FACE_OUTER_BOUND('',#99,.T.);
#68=FACE_OUTER_BOUND('',#101,.T.);
#69=FACE_OUTER_BOUND('',#103,.T.);
#70=FACE_OUTER_BOUND('',#104,.T.);
#71=FACE_OUTER_BOUND('',#106,.T.);
#72=FACE_OUTER_BOUND('',#108,.T.);
#73=FACE_OUTER_BOUND('',#110,.T.);
#74=FACE_OUTER_BOUND('',#112,.T.);
#75=FACE_OUTER_BOUND('',#114,.T.);
#76=EDGE_LOOP('',(#176));
#77=EDGE_LOOP('',(#177));
#78=EDGE_LOOP('',(#178));
#79=EDGE_LOOP('',(#179));
#80=EDGE_LOOP('',(#180));
#81=EDGE_LOOP('',(#181));
#82=EDGE_LOOP('',(#182));
#83=EDGE_LOOP('',(#183));
#84=EDGE_LOOP('',(#184));
#85=EDGE_LOOP('',(#185));
#86=EDGE_LOOP('',(#186));
#87=EDGE_LOOP('',(#187));
#88=EDGE_LOOP('',(#188));
#89=EDGE_LOOP('',(#189));
#90=EDGE_LOOP('',(#190));
#91=EDGE_LOOP('',(#191));
#92=EDGE_LOOP('',(#192));
#93=EDGE_LOOP('',(#193));
#94=EDGE_LOOP('',(#194));
#95=EDGE_LOOP('',(#195));
#96=EDGE_LOOP('',(#196));
#97=EDGE_LOOP('',(#197));
#98=EDGE_LOOP('',(#198));
#99=EDGE_LOOP('',(#199));
#100=EDGE_LOOP('',(#200));
#101=EDGE_LOOP('',(#201));
#102=EDGE_LOOP('',(#202));
#103=EDGE_LOOP('',(#203));
#104=EDGE_LOOP('',(#204));
#105=EDGE_LOOP('',(#205));
#106=EDGE_LOOP('',(#206));
#107=EDGE_LOOP('',(#207));
#108=EDGE_LOOP('',(#208));
#109=EDGE_LOOP('',(#209));
#110=EDGE_LOOP('',(#210));
#111=EDGE_LOOP('',(#211));
#112=EDGE_LOOP('',(#212));
#113=EDGE_LOOP('',(#213));
#114=EDGE_LOOP('',(#214));
#115=EDGE_LOOP('',(#215));
#116=CIRCLE('',#247,0.6885);
#117=CIRCLE('',#248,0.6885);
#118=CIRCLE('',#250,0.5625);
#119=CIRCLE('',#252,0.5625);
#120=CIRCLE('',#254,0.33);
#121=CIRCLE('',#256,0.33);
#122=CIRCLE('',#258,0.379976575686199);
#123=CIRCLE('',#260,0.426651426718587);
#124=CIRCLE('',#262,0.425842308546125);
#125=CIRCLE('',#264,0.6885);
#126=CIRCLE('',#266,0.6885);
#127=CIRCLE('',#268,0.458253834919467);
#128=CIRCLE('',#270,0.4635);
#129=CIRCLE('',#272,0.535);
#130=CIRCLE('',#274,0.535);
#131=CIRCLE('',#277,0.8);
#132=CIRCLE('',#279,0.8);
#133=CIRCLE('',#281,0.84);
#134=CIRCLE('',#282,0.84);
#135=CIRCLE('',#285,0.84);
#136=VERTEX_POINT('',#373);
#137=VERTEX_POINT('',#375);
#138=VERTEX_POINT('',#378);
#139=VERTEX_POINT('',#381);
#140=VERTEX_POINT('',#384);
#141=VERTEX_POINT('',#387);
#142=VERTEX_POINT('',#390);
#143=VERTEX_POINT('',#393);
#144=VERTEX_POINT('',#396);
#145=VERTEX_POINT('',#399);
#146=VERTEX_POINT('',#402);
#147=VERTEX_POINT('',#405);
#148=VERTEX_POINT('',#408);
#149=VERTEX_POINT('',#411);
#150=VERTEX_POINT('',#414);
#151=VERTEX_POINT('',#418);
#152=VERTEX_POINT('',#421);
#153=VERTEX_POINT('',#424);
#154=VERTEX_POINT('',#426);
#155=VERTEX_POINT('',#430);
#156=EDGE_CURVE('',#136,#136,#116,.T.);
#157=EDGE_CURVE('',#137,#137,#117,.T.);
#158=EDGE_CURVE('',#138,#138,#118,.T.);
#159=EDGE_CURVE('',#139,#139,#119,.T.);
#160=EDGE_CURVE('',#140,#140,#120,.T.);
#161=EDGE_CURVE('',#141,#141,#121,.T.);
#162=EDGE_CURVE('',#142,#142,#122,.T.);
#163=EDGE_CURVE('',#143,#143,#123,.T.);
#164=EDGE_CURVE('',#144,#144,#124,.T.);
#165=EDGE_CURVE('',#145,#145,#125,.T.);
#166=EDGE_CURVE('',#146,#146,#126,.T.);
#167=EDGE_CURVE('',#147,#147,#127,.T.);
#168=EDGE_CURVE('',#148,#148,#128,.T.);
#169=EDGE_CURVE('',#149,#149,#129,.T.);
#170=EDGE_CURVE('',#150,#150,#130,.T.);
#171=EDGE_CURVE('',#151,#151,#131,.T.);
#172=EDGE_CURVE('',#152,#152,#132,.T.);
#173=EDGE_CURVE('',#153,#153,#133,.T.);
#174=EDGE_CURVE('',#154,#154,#134,.T.);
#175=EDGE_CURVE('',#155,#155,#135,.T.);
#176=ORIENTED_EDGE('',*,*,#156,.T.);
#177=ORIENTED_EDGE('',*,*,#157,.F.);
#178=ORIENTED_EDGE('',*,*,#156,.F.);
#179=ORIENTED_EDGE('',*,*,#158,.T.);
#180=ORIENTED_EDGE('',*,*,#159,.F.);
#181=ORIENTED_EDGE('',*,*,#158,.F.);
#182=ORIENTED_EDGE('',*,*,#160,.T.);
#183=ORIENTED_EDGE('',*,*,#161,.T.);
#184=ORIENTED_EDGE('',*,*,#160,.F.);
#185=ORIENTED_EDGE('',*,*,#162,.T.);
#186=ORIENTED_EDGE('',*,*,#161,.F.);
#187=ORIENTED_EDGE('',*,*,#163,.T.);
#188=ORIENTED_EDGE('',*,*,#162,.F.);
#189=ORIENTED_EDGE('',*,*,#164,.T.);
#190=ORIENTED_EDGE('',*,*,#163,.F.);
#191=ORIENTED_EDGE('',*,*,#165,.T.);
#192=ORIENTED_EDGE('',*,*,#164,.F.);
#193=ORIENTED_EDGE('',*,*,#166,.T.);
#194=ORIENTED_EDGE('',*,*,#165,.F.);
#195=ORIENTED_EDGE('',*,*,#166,.F.);
#196=ORIENTED_EDGE('',*,*,#167,.T.);
#197=ORIENTED_EDGE('',*,*,#168,.T.);
#198=ORIENTED_EDGE('',*,*,#167,.F.);
#199=ORIENTED_EDGE('',*,*,#169,.T.);
#200=ORIENTED_EDGE('',*,*,#168,.F.);
#201=ORIENTED_EDGE('',*,*,#170,.F.);
#202=ORIENTED_EDGE('',*,*,#169,.F.);
#203=ORIENTED_EDGE('',*,*,#159,.T.);
#204=ORIENTED_EDGE('',*,*,#171,.F.);
#205=ORIENTED_EDGE('',*,*,#170,.T.);
#206=ORIENTED_EDGE('',*,*,#172,.F.);
#207=ORIENTED_EDGE('',*,*,#157,.T.);
#208=ORIENTED_EDGE('',*,*,#173,.F.);
#209=ORIENTED_EDGE('',*,*,#174,.F.);
#210=ORIENTED_EDGE('',*,*,#173,.T.);
#211=ORIENTED_EDGE('',*,*,#172,.T.);
#212=ORIENTED_EDGE('',*,*,#174,.T.);
#213=ORIENTED_EDGE('',*,*,#175,.F.);
#214=ORIENTED_EDGE('',*,*,#171,.T.);
#215=ORIENTED_EDGE('',*,*,#175,.T.);
#216=CYLINDRICAL_SURFACE('',#246,0.6885);
#217=CYLINDRICAL_SURFACE('',#251,0.5625);
#218=CYLINDRICAL_SURFACE('',#255,0.33);
#219=CYLINDRICAL_SURFACE('',#265,0.6885);
#220=CYLINDRICAL_SURFACE('',#273,0.535);
#221=CYLINDRICAL_SURFACE('',#280,0.84);
#222=CYLINDRICAL_SURFACE('',#284,0.84);
#223=ADVANCED_FACE('',(#55,#36),#216,.F.);
#224=ADVANCED_FACE('',(#56,#37),#28,.F.);
#225=ADVANCED_FACE('',(#57,#38),#217,.T.);
#226=ADVANCED_FACE('',(#58),#29,.F.);
#227=ADVANCED_FACE('',(#59,#39),#218,.F.);
#228=ADVANCED_FACE('',(#60,#40),#30,.F.);
#229=ADVANCED_FACE('',(#61,#41),#27,.T.);
#230=ADVANCED_FACE('',(#62,#42),#22,.F.);
#231=ADVANCED_FACE('',(#63,#43),#31,.F.);
#232=ADVANCED_FACE('',(#64,#44),#219,.F.);
#233=ADVANCED_FACE('',(#65,#45),#32,.F.);
#234=ADVANCED_FACE('',(#66,#46),#23,.F.);
#235=ADVANCED_FACE('',(#67,#47),#24,.F.);
#236=ADVANCED_FACE('',(#68,#48),#220,.F.);
#237=ADVANCED_FACE('',(#69),#33,.T.);
#238=ADVANCED_FACE('',(#70,#49),#34,.T.);
#239=ADVANCED_FACE('',(#71,#50),#35,.T.);
#240=ADVANCED_FACE('',(#72,#51),#221,.T.);
#241=ADVANCED_FACE('',(#73,#52),#25,.T.);
#242=ADVANCED_FACE('',(#74,#53),#222,.T.);
#243=ADVANCED_FACE('',(#75,#54),#26,.T.);
#244=CLOSED_SHELL('',(#223,#224,#225,#226,#227,#228,#229,#230,#231,#232,
#233,#234,#235,#236,#237,#238,#239,#240,#241,#242,#243));
#245=AXIS2_PLACEMENT_3D('placement',#371,#287,#288);
#246=AXIS2_PLACEMENT_3D('',#372,#289,#290);
#247=AXIS2_PLACEMENT_3D('',#374,#291,#292);
#248=AXIS2_PLACEMENT_3D('',#376,#293,#294);
#249=AXIS2_PLACEMENT_3D('',#377,#295,#296);
#250=AXIS2_PLACEMENT_3D('',#379,#297,#298);
#251=AXIS2_PLACEMENT_3D('',#380,#299,#300);
#252=AXIS2_PLACEMENT_3D('',#382,#301,#302);
#253=AXIS2_PLACEMENT_3D('',#383,#303,#304);
#254=AXIS2_PLACEMENT_3D('',#385,#305,#306);
#255=AXIS2_PLACEMENT_3D('',#386,#307,#308);
#256=AXIS2_PLACEMENT_3D('',#388,#309,#310);
#257=AXIS2_PLACEMENT_3D('',#389,#311,#312);
#258=AXIS2_PLACEMENT_3D('',#391,#313,#314);
#259=AXIS2_PLACEMENT_3D('',#392,#315,#316);
#260=AXIS2_PLACEMENT_3D('',#394,#317,#318);
#261=AXIS2_PLACEMENT_3D('',#395,#319,#320);
#262=AXIS2_PLACEMENT_3D('',#397,#321,#322);
#263=AXIS2_PLACEMENT_3D('',#398,#323,#324);
#264=AXIS2_PLACEMENT_3D('',#400,#325,#326);
#265=AXIS2_PLACEMENT_3D('',#401,#327,#328);
#266=AXIS2_PLACEMENT_3D('',#403,#329,#330);
#267=AXIS2_PLACEMENT_3D('',#404,#331,#332);
#268=AXIS2_PLACEMENT_3D('',#406,#333,#334);
#269=AXIS2_PLACEMENT_3D('',#407,#335,#336);
#270=AXIS2_PLACEMENT_3D('',#409,#337,#338);
#271=AXIS2_PLACEMENT_3D('',#410,#339,#340);
#272=AXIS2_PLACEMENT_3D('',#412,#341,#342);
#273=AXIS2_PLACEMENT_3D('',#413,#343,#344);
#274=AXIS2_PLACEMENT_3D('',#415,#345,#346);
#275=AXIS2_PLACEMENT_3D('',#416,#347,#348);
#276=AXIS2_PLACEMENT_3D('',#417,#349,#350);
#277=AXIS2_PLACEMENT_3D('',#419,#351,#352);
#278=AXIS2_PLACEMENT_3D('',#420,#353,#354);
#279=AXIS2_PLACEMENT_3D('',#422,#355,#356);
#280=AXIS2_PLACEMENT_3D('',#423,#357,#358);
#281=AXIS2_PLACEMENT_3D('',#425,#359,#360);
#282=AXIS2_PLACEMENT_3D('',#427,#361,#362);
#283=AXIS2_PLACEMENT_3D('',#428,#363,#364);
#284=AXIS2_PLACEMENT_3D('',#429,#365,#366);
#285=AXIS2_PLACEMENT_3D('',#431,#367,#368);
#286=AXIS2_PLACEMENT_3D('',#432,#369,#370);
#287=DIRECTION('axis',(0.,0.,1.));
#288=DIRECTION('refdir',(1.,0.,0.));
#289=DIRECTION('center_axis',(-1.,0.,0.));
#290=DIRECTION('ref_axis',(0.,1.,0.));
#291=DIRECTION('center_axis',(-1.,0.,0.));
#292=DIRECTION('ref_axis',(0.,0.,1.));
#293=DIRECTION('center_axis',(-1.,-1.45127161951125E-33,-6.58712809727844E-50));
#294=DIRECTION('ref_axis',(0.,1.,0.));
#295=DIRECTION('center_axis',(-1.,0.,0.));
#296=DIRECTION('ref_axis',(0.,0.,1.));
#297=DIRECTION('center_axis',(-1.,0.,0.));
#298=DIRECTION('ref_axis',(0.,0.,1.));
#299=DIRECTION('center_axis',(-1.,0.,0.));
#300=DIRECTION('ref_axis',(0.,1.,0.));
#301=DIRECTION('center_axis',(1.,1.45127161951125E-33,6.58712809727844E-50));
#302=DIRECTION('ref_axis',(0.,1.,0.));
#303=DIRECTION('center_axis',(1.,0.,0.));
#304=DIRECTION('ref_axis',(0.,0.,-1.));
#305=DIRECTION('center_axis',(-1.,0.,0.));
#306=DIRECTION('ref_axis',(0.,0.,1.));
#307=DIRECTION('center_axis',(-1.,0.,0.));
#308=DIRECTION('ref_axis',(0.,1.,0.));
#309=DIRECTION('center_axis',(-1.,0.,0.));
#310=DIRECTION('ref_axis',(0.,0.,1.));
#311=DIRECTION('center_axis',(1.,0.,0.));
#312=DIRECTION('ref_axis',(0.,0.,-1.));
#313=DIRECTION('center_axis',(-1.,0.,0.));
#314=DIRECTION('ref_axis',(0.,0.,1.));
#315=DIRECTION('center_axis',(-1.,0.,0.));
#316=DIRECTION('ref_axis',(0.,0.,1.));
#317=DIRECTION('center_axis',(-1.,0.,0.));
#318=DIRECTION('ref_axis',(0.,0.,1.));
#319=DIRECTION('center_axis',(1.,0.,0.));
#320=DIRECTION('ref_axis',(0.,1.,0.));
#321=DIRECTION('center_axis',(-1.,0.,0.));
#322=DIRECTION('ref_axis',(0.,0.,1.));
#323=DIRECTION('center_axis',(1.,0.,0.));
#324=DIRECTION('ref_axis',(0.,0.,-1.));
#325=DIRECTION('center_axis',(-1.,0.,0.));
#326=DIRECTION('ref_axis',(0.,0.,1.));
#327=DIRECTION('center_axis',(-1.,0.,0.));
#328=DIRECTION('ref_axis',(0.,1.,0.));
#329=DIRECTION('center_axis',(-1.,0.,0.));
#330=DIRECTION('ref_axis',(0.,0.,1.));
#331=DIRECTION('center_axis',(-1.,0.,0.));
#332=DIRECTION('ref_axis',(0.,0.,1.));
#333=DIRECTION('center_axis',(-1.,0.,0.));
#334=DIRECTION('ref_axis',(0.,0.,1.));
#335=DIRECTION('center_axis',(-1.,0.,0.));
#336=DIRECTION('ref_axis',(0.,1.,0.));
#337=DIRECTION('center_axis',(-1.,0.,0.));
#338=DIRECTION('ref_axis',(0.,0.,1.));
#339=DIRECTION('center_axis',(-1.,0.,0.));
#340=DIRECTION('ref_axis',(0.,1.,0.));
#341=DIRECTION('center_axis',(-1.,0.,0.));
#342=DIRECTION('ref_axis',(0.,0.,1.));
#343=DIRECTION('center_axis',(-1.,0.,0.));
#344=DIRECTION('ref_axis',(0.,1.,0.));
#345=DIRECTION('center_axis',(1.,1.45127161951125E-33,6.58712809727844E-50));
#346=DIRECTION('ref_axis',(0.,1.,0.));
#347=DIRECTION('center_axis',(1.,1.45127161951125E-33,6.58712809727844E-50));
#348=DIRECTION('ref_axis',(0.,0.,-1.));
#349=DIRECTION('center_axis',(-1.,-1.45127161951125E-33,-6.58712809727844E-50));
#350=DIRECTION('ref_axis',(0.,0.,1.));
#351=DIRECTION('center_axis',(1.,1.45127161951125E-33,6.58712809727844E-50));
#352=DIRECTION('ref_axis',(1.45127161951125E-33,-1.,1.12787572176561E-82));
#353=DIRECTION('center_axis',(1.,1.45127161951125E-33,6.58712809727844E-50));
#354=DIRECTION('ref_axis',(0.,0.,-1.));
#355=DIRECTION('center_axis',(-1.,-1.45127161951125E-33,-6.58712809727844E-50));
#356=DIRECTION('ref_axis',(1.45127161951125E-33,-1.,1.12787572176561E-82));
#357=DIRECTION('center_axis',(1.,1.45127161951125E-33,6.58712809727844E-50));
#358=DIRECTION('ref_axis',(-1.07922845965061E-33,1.,-8.82806126593777E-83));
#359=DIRECTION('center_axis',(1.,1.45127161951125E-33,6.58712809727844E-50));
#360=DIRECTION('ref_axis',(1.07922845965061E-33,-1.,8.82806126593777E-83));
#361=DIRECTION('center_axis',(-1.,-1.07922845965061E-33,-6.58712809727844E-50));
#362=DIRECTION('ref_axis',(-1.07922845965061E-33,1.,-8.82806126593777E-83));
#363=DIRECTION('center_axis',(-1.,-1.45127161951125E-33,-6.58712809727844E-50));
#364=DIRECTION('ref_axis',(1.26071292787531E-33,-1.,1.00235227058003E-82));
#365=DIRECTION('center_axis',(1.,1.45127161951125E-33,6.58712809727844E-50));
#366=DIRECTION('ref_axis',(-1.07922845965061E-33,1.,-8.82806126593777E-83));
#367=DIRECTION('center_axis',(-1.,-1.45127161951125E-33,-6.58712809727844E-50));
#368=DIRECTION('ref_axis',(1.07922845965061E-33,-1.,8.82806126593777E-83));
#369=DIRECTION('center_axis',(1.,1.45127161951125E-33,6.58712809727844E-50));
#370=DIRECTION('ref_axis',(1.26071292787531E-33,-1.,1.00235227058003E-82));
#371=CARTESIAN_POINT('',(0.,0.,0.));
#372=CARTESIAN_POINT('Origin',(0.657,0.,0.));
#373=CARTESIAN_POINT('',(0.6,0.6885,0.));
#374=CARTESIAN_POINT('Origin',(0.6,0.,0.));
#375=CARTESIAN_POINT('',(0.714,0.6885,0.));
#376=CARTESIAN_POINT('Origin',(0.714,0.,0.));
#377=CARTESIAN_POINT('Origin',(0.6,0.5625,0.));
#378=CARTESIAN_POINT('',(0.6,0.5625,0.));
#379=CARTESIAN_POINT('Origin',(0.6,0.,0.));
#380=CARTESIAN_POINT('Origin',(0.657,0.,0.));
#381=CARTESIAN_POINT('',(0.714,0.5625,0.));
#382=CARTESIAN_POINT('Origin',(0.714,0.,0.));
#383=CARTESIAN_POINT('Origin',(0.465,0.33,0.));
#384=CARTESIAN_POINT('',(0.465,0.33,0.));
#385=CARTESIAN_POINT('Origin',(0.465,0.,0.));
#386=CARTESIAN_POINT('Origin',(0.27,0.,0.));
#387=CARTESIAN_POINT('',(0.0750000000000003,0.33,0.));
#388=CARTESIAN_POINT('Origin',(0.0750000000000003,0.,0.));
#389=CARTESIAN_POINT('Origin',(0.0750000000000003,0.379976575686199,0.));
#390=CARTESIAN_POINT('',(0.0750000000000003,0.379976575686199,0.));
#391=CARTESIAN_POINT('Origin',(0.0750000000000003,0.,0.));
#392=CARTESIAN_POINT('Origin',(0.0235000000000004,0.,0.));
#393=CARTESIAN_POINT('',(0.00173515952035438,0.426651426718587,0.));
#394=CARTESIAN_POINT('Origin',(0.0017351595203544,0.,0.));
#395=CARTESIAN_POINT('Origin',(0.000867579760177332,0.,0.));
#396=CARTESIAN_POINT('',(3.34209771555789E-16,0.425842308546125,0.));
#397=CARTESIAN_POINT('Origin',(3.49676543189026E-16,0.,0.));
#398=CARTESIAN_POINT('Origin',(2.54403344409984E-16,0.6885,0.));
#399=CARTESIAN_POINT('',(2.54403344409984E-16,0.6885,0.));
#400=CARTESIAN_POINT('Origin',(2.62257407391769E-16,0.,0.));
#401=CARTESIAN_POINT('Origin',(-0.0329999999999997,0.,0.));
#402=CARTESIAN_POINT('',(-0.0659999999999997,0.6885,0.));
#403=CARTESIAN_POINT('Origin',(-0.0659999999999997,0.,0.));
#404=CARTESIAN_POINT('Origin',(-0.0659999999999997,0.458253834919467,0.));
#405=CARTESIAN_POINT('',(-0.0659999999999997,0.458253834919467,0.));
#406=CARTESIAN_POINT('Origin',(-0.0659999999999996,0.,0.));
#407=CARTESIAN_POINT('Origin',(-0.15025,0.,0.));
#408=CARTESIAN_POINT('',(-0.2345,0.4635,0.));
#409=CARTESIAN_POINT('Origin',(-0.2345,0.,0.));
#410=CARTESIAN_POINT('Origin',(-0.27025,0.,0.));
#411=CARTESIAN_POINT('',(-0.306,0.535,0.));
#412=CARTESIAN_POINT('Origin',(-0.306,0.,0.));
#413=CARTESIAN_POINT('Origin',(-0.336,0.,0.));
#414=CARTESIAN_POINT('',(-0.366,0.535,0.));
#415=CARTESIAN_POINT('Origin',(-0.366,0.,0.));
#416=CARTESIAN_POINT('Origin',(0.714,0.42,7.11409834506071E-50));
#417=CARTESIAN_POINT('Origin',(-0.366,0.42,-2.87920522824953E-66));
#418=CARTESIAN_POINT('',(-0.366,0.8,9.79685083057902E-17));
#419=CARTESIAN_POINT('Origin',(-0.366,-4.57921488933715E-34,-2.87920522824953E-66));
#420=CARTESIAN_POINT('Origin',(0.714,0.42,7.11409834506071E-50));
#421=CARTESIAN_POINT('',(0.714,0.8,-9.79685083057902E-17));
#422=CARTESIAN_POINT('Origin',(0.714,1.10945186013843E-33,7.11409834506071E-50));
#423=CARTESIAN_POINT('Origin',(0.174,3.2576518560236E-34,3.55704917253035E-50));
#424=CARTESIAN_POINT('',(0.674,0.84,1.0286693372108E-16));
#425=CARTESIAN_POINT('Origin',(0.674,1.05140099535798E-33,6.85061322116957E-50));
#426=CARTESIAN_POINT('',(-0.0259999999999997,-0.84,1.0286693372108E-16));
#427=CARTESIAN_POINT('Origin',(-0.0259999999999997,3.551086170011E-35,2.23962355307467E-50));
#428=CARTESIAN_POINT('Origin',(0.694,1.08042642774821E-33,6.98235578311514E-50));
#429=CARTESIAN_POINT('Origin',(0.174,3.2576518560236E-34,3.55704917253035E-50));
#430=CARTESIAN_POINT('',(-0.326,0.84,-1.0286693372108E-16));
#431=CARTESIAN_POINT('Origin',(-0.326,-3.99870624153265E-34,2.63485123891136E-51));
#432=CARTESIAN_POINT('Origin',(-0.346,-4.2889605654349E-34,1.31742561945568E-51));
#433=UNCERTAINTY_MEASURE_WITH_UNIT(LENGTH_MEASURE(0.000393700787401575),
#437,'DISTANCE_ACCURACY_VALUE',
'Maximum model space distance between geometric entities at asserted c
onnectivities');
#434=UNCERTAINTY_MEASURE_WITH_UNIT(LENGTH_MEASURE(1.E-6),#438,
'DISTANCE_ACCURACY_VALUE',
'Maximum model space distance between geometric entities at asserted c
onnectivities');
#435=(
GEOMETRIC_REPRESENTATION_CONTEXT(3)
GLOBAL_UNCERTAINTY_ASSIGNED_CONTEXT((#433))
GLOBAL_UNIT_ASSIGNED_CONTEXT((#437,#443,#440))
REPRESENTATION_CONTEXT('','3D')
);
#436=(
GEOMETRIC_REPRESENTATION_CONTEXT(3)
GLOBAL_UNCERTAINTY_ASSIGNED_CONTEXT((#434))
GLOBAL_UNIT_ASSIGNED_CONTEXT((#438,#443,#440))
REPRESENTATION_CONTEXT('','3D')
);
#437=(
CONVERSION_BASED_UNIT('__CONSTANT UNIT inch',#439)
LENGTH_UNIT()
NAMED_UNIT(#442)
);
#438=(
LENGTH_UNIT()
NAMED_UNIT(*)
SI_UNIT(.MILLI.,.METRE.)
);
#439=LENGTH_MEASURE_WITH_UNIT(LENGTH_MEASURE(25.4),#438);
#440=(
NAMED_UNIT(*)
SI_UNIT($,.STERADIAN.)
SOLID_ANGLE_UNIT()
);
#441=DIMENSIONAL_EXPONENTS(0.,0.,0.,0.,0.,0.,0.);
#442=DIMENSIONAL_EXPONENTS(1.,0.,0.,0.,0.,0.,0.);
#443=(
CONVERSION_BASED_UNIT('degree',#445)
NAMED_UNIT(#441)
PLANE_ANGLE_UNIT()
);
#444=(
NAMED_UNIT(*)
PLANE_ANGLE_UNIT()
SI_UNIT($,.RADIAN.)
);
#445=PLANE_ANGLE_MEASURE_WITH_UNIT(PLANE_ANGLE_MEASURE(0.01745329252),#444);
#446=SHAPE_DEFINITION_REPRESENTATION(#447,#448);
#447=PRODUCT_DEFINITION_SHAPE('',$,#450);
#448=SHAPE_REPRESENTATION('',(#245),#435);
#449=PRODUCT_DEFINITION_CONTEXT('part definition',#454,'design');
#450=PRODUCT_DEFINITION('MET121C','MET121C',#451,#449);
#451=PRODUCT_DEFINITION_FORMATION('',$,#456);
#452=PRODUCT_RELATED_PRODUCT_CATEGORY('MET121C','MET121C',(#456));
#453=APPLICATION_PROTOCOL_DEFINITION('international standard',
'automotive_design',2009,#454);
#454=APPLICATION_CONTEXT(
'Core Data for Automotive Mechanical Design Process');
#455=PRODUCT_CONTEXT('part definition',#454,'mechanical');
#456=PRODUCT('MET121C','MET121C',$,(#455));
#457=PRESENTATION_STYLE_ASSIGNMENT((#460));
#458=PRESENTATION_STYLE_ASSIGNMENT((#461));
#459=PRESENTATION_STYLE_ASSIGNMENT((#462));
#460=SURFACE_STYLE_USAGE(.BOTH.,#463);
#461=SURFACE_STYLE_USAGE(.BOTH.,#464);
#462=SURFACE_STYLE_USAGE(.BOTH.,#465);
#463=SURFACE_SIDE_STYLE('',(#466));
#464=SURFACE_SIDE_STYLE('',(#467));
#465=SURFACE_SIDE_STYLE('',(#468));
#466=SURFACE_STYLE_FILL_AREA(#469);
#467=SURFACE_STYLE_FILL_AREA(#470);
#468=SURFACE_STYLE_FILL_AREA(#471);
#469=FILL_AREA_STYLE('',(#472));
#470=FILL_AREA_STYLE('',(#473));
#471=FILL_AREA_STYLE('',(#474));
#472=FILL_AREA_STYLE_COLOUR('',#475);
#473=FILL_AREA_STYLE_COLOUR('',#476);
#474=FILL_AREA_STYLE_COLOUR('',#477);
#475=COLOUR_RGB('',0.63921568627451,0.63921568627451,0.686274509803922);
#476=COLOUR_RGB('',0.67843137254902,0.768627450980392,0.811764705882353);
#477=COLOUR_RGB('',0.580392156862745,0.580392156862745,0.592156862745098);
ENDSEC;
END-ISO-10303-21;
