ISO-10303-21;
HEADER;
/* Generated by software containing ST-Developer
 * from STEP Tools, Inc. (www.steptools.com) 
 */

FILE_DESCRIPTION(
/* description */ (''),
/* implementation_level */ '2;1');

FILE_NAME(
/* name */ 'S:\\Marketing\\CAD Models\\MET\\MET161C.stp',
/* time_stamp */ '2018-01-22T10:36:00-06:00',
/* author */ ('scottg'),
/* organization */ ('FasTest,Inc.'),
/* preprocessor_version */ 'ST-DEVELOPER v16.1',
/* originating_system */ 'Autodesk Inventor 2016',
/* authorisation */ '');

FILE_SCHEMA (('AUTOMOTIVE_DESIGN { 1 0 10303 214 3 1 1 }'));
ENDSEC;

DATA;
#10=MECHANICAL_DESIGN_GEOMETRIC_PRESENTATION_REPRESENTATION('',(#18,#16,
#17,#15,#14,#20,#19),#455);
#11=SHAPE_REPRESENTATION_RELATIONSHIP('SRR','None',#467,#12);
#12=ADVANCED_BREP_SHAPE_REPRESENTATION('',(#13),#454);
#13=MANIFOLD_SOLID_BREP('Solid1',#254);
#14=STYLED_ITEM('',(#477),#248);
#15=STYLED_ITEM('',(#477),#249);
#16=STYLED_ITEM('',(#478),#250);
#17=STYLED_ITEM('',(#477),#251);
#18=STYLED_ITEM('',(#477),#252);
#19=STYLED_ITEM('',(#477),#253);
#20=STYLED_ITEM('',(#476),#13);
#21=CONICAL_SURFACE('',#272,0.549282749621205,30.0000000000014);
#22=CONICAL_SURFACE('',#280,0.626070530196261,60.);
#23=CONICAL_SURFACE('',#282,0.579320530196261,1.78332999999997);
#24=CONICAL_SURFACE('',#284,0.62825,45.);
#25=CONICAL_SURFACE('',#295,0.975,44.9999999999998);
#26=CONICAL_SURFACE('',#298,0.975,45.0000000000001);
#27=TOROIDAL_SURFACE('',#270,0.489310490409133,0.0695);
#28=PLANE('',#259);
#29=PLANE('',#263);
#30=PLANE('',#267);
#31=PLANE('',#268);
#32=PLANE('',#274);
#33=PLANE('',#278);
#34=PLANE('',#288);
#35=PLANE('',#290);
#36=FACE_BOUND('',#79,.T.);
#37=FACE_BOUND('',#81,.T.);
#38=FACE_BOUND('',#83,.T.);
#39=FACE_BOUND('',#85,.T.);
#40=FACE_BOUND('',#87,.T.);
#41=FACE_BOUND('',#91,.T.);
#42=FACE_BOUND('',#93,.T.);
#43=FACE_BOUND('',#95,.T.);
#44=FACE_BOUND('',#97,.T.);
#45=FACE_BOUND('',#99,.T.);
#46=FACE_BOUND('',#101,.T.);
#47=FACE_BOUND('',#103,.T.);
#48=FACE_BOUND('',#105,.T.);
#49=FACE_BOUND('',#107,.T.);
#50=FACE_BOUND('',#109,.T.);
#51=FACE_BOUND('',#111,.T.);
#52=FACE_BOUND('',#113,.T.);
#53=FACE_BOUND('',#115,.T.);
#54=FACE_BOUND('',#117,.T.);
#55=FACE_BOUND('',#119,.T.);
#56=FACE_OUTER_BOUND('',#78,.T.);
#57=FACE_OUTER_BOUND('',#80,.T.);
#58=FACE_OUTER_BOUND('',#82,.T.);
#59=FACE_OUTER_BOUND('',#84,.T.);
#60=FACE_OUTER_BOUND('',#86,.T.);
#61=FACE_OUTER_BOUND('',#88,.T.);
#62=FACE_OUTER_BOUND('',#89,.T.);
#63=FACE_OUTER_BOUND('',#90,.T.);
#64=FACE_OUTER_BOUND('',#92,.T.);
#65=FACE_OUTER_BOUND('',#94,.T.);
#66=FACE_OUTER_BOUND('',#96,.T.);
#67=FACE_OUTER_BOUND('',#98,.T.);
#68=FACE_OUTER_BOUND('',#100,.T.);
#69=FACE_OUTER_BOUND('',#102,.T.);
#70=FACE_OUTER_BOUND('',#104,.T.);
#71=FACE_OUTER_BOUND('',#106,.T.);
#72=FACE_OUTER_BOUND('',#108,.T.);
#73=FACE_OUTER_BOUND('',#110,.T.);
#74=FACE_OUTER_BOUND('',#112,.T.);
#75=FACE_OUTER_BOUND('',#114,.T.);
#76=FACE_OUTER_BOUND('',#116,.T.);
#77=FACE_OUTER_BOUND('',#118,.T.);
#78=EDGE_LOOP('',(#183));
#79=EDGE_LOOP('',(#184));
#80=EDGE_LOOP('',(#185));
#81=EDGE_LOOP('',(#186));
#82=EDGE_LOOP('',(#187));
#83=EDGE_LOOP('',(#188));
#84=EDGE_LOOP('',(#189));
#85=EDGE_LOOP('',(#190));
#86=EDGE_LOOP('',(#191));
#87=EDGE_LOOP('',(#192));
#88=EDGE_LOOP('',(#193));
#89=EDGE_LOOP('',(#194));
#90=EDGE_LOOP('',(#195));
#91=EDGE_LOOP('',(#196));
#92=EDGE_LOOP('',(#197));
#93=EDGE_LOOP('',(#198));
#94=EDGE_LOOP('',(#199));
#95=EDGE_LOOP('',(#200));
#96=EDGE_LOOP('',(#201));
#97=EDGE_LOOP('',(#202));
#98=EDGE_LOOP('',(#203));
#99=EDGE_LOOP('',(#204));
#100=EDGE_LOOP('',(#205));
#101=EDGE_LOOP('',(#206));
#102=EDGE_LOOP('',(#207));
#103=EDGE_LOOP('',(#208));
#104=EDGE_LOOP('',(#209));
#105=EDGE_LOOP('',(#210));
#106=EDGE_LOOP('',(#211));
#107=EDGE_LOOP('',(#212));
#108=EDGE_LOOP('',(#213));
#109=EDGE_LOOP('',(#214));
#110=EDGE_LOOP('',(#215));
#111=EDGE_LOOP('',(#216));
#112=EDGE_LOOP('',(#217));
#113=EDGE_LOOP('',(#218));
#114=EDGE_LOOP('',(#219));
#115=EDGE_LOOP('',(#220));
#116=EDGE_LOOP('',(#221));
#117=EDGE_LOOP('',(#222));
#118=EDGE_LOOP('',(#223));
#119=EDGE_LOOP('',(#224));
#120=CIRCLE('',#257,0.814);
#121=CIRCLE('',#258,0.814);
#122=CIRCLE('',#260,0.726);
#123=CIRCLE('',#262,0.726);
#124=CIRCLE('',#264,0.672);
#125=CIRCLE('',#266,0.672);
#126=CIRCLE('',#269,0.489310490409133);
#127=CIRCLE('',#271,0.549499255972151);
#128=CIRCLE('',#273,0.549066243270259);
#129=CIRCLE('',#275,0.814);
#130=CIRCLE('',#277,0.814);
#131=CIRCLE('',#279,0.675);
#132=CIRCLE('',#281,0.577141060392522);
#133=CIRCLE('',#283,0.5815);
#134=CIRCLE('',#285,0.675);
#135=CIRCLE('',#287,0.675);
#136=CIRCLE('',#289,0.955);
#137=CIRCLE('',#291,0.955);
#138=CIRCLE('',#293,0.995);
#139=CIRCLE('',#294,0.995);
#140=CIRCLE('',#297,0.995);
#141=VERTEX_POINT('',#389);
#142=VERTEX_POINT('',#391);
#143=VERTEX_POINT('',#394);
#144=VERTEX_POINT('',#397);
#145=VERTEX_POINT('',#400);
#146=VERTEX_POINT('',#403);
#147=VERTEX_POINT('',#407);
#148=VERTEX_POINT('',#410);
#149=VERTEX_POINT('',#413);
#150=VERTEX_POINT('',#416);
#151=VERTEX_POINT('',#419);
#152=VERTEX_POINT('',#422);
#153=VERTEX_POINT('',#425);
#154=VERTEX_POINT('',#428);
#155=VERTEX_POINT('',#431);
#156=VERTEX_POINT('',#434);
#157=VERTEX_POINT('',#437);
#158=VERTEX_POINT('',#440);
#159=VERTEX_POINT('',#443);
#160=VERTEX_POINT('',#445);
#161=VERTEX_POINT('',#449);
#162=EDGE_CURVE('',#141,#141,#120,.T.);
#163=EDGE_CURVE('',#142,#142,#121,.T.);
#164=EDGE_CURVE('',#143,#143,#122,.T.);
#165=EDGE_CURVE('',#144,#144,#123,.T.);
#166=EDGE_CURVE('',#145,#145,#124,.T.);
#167=EDGE_CURVE('',#146,#146,#125,.T.);
#168=EDGE_CURVE('',#147,#147,#126,.T.);
#169=EDGE_CURVE('',#148,#148,#127,.T.);
#170=EDGE_CURVE('',#149,#149,#128,.T.);
#171=EDGE_CURVE('',#150,#150,#129,.T.);
#172=EDGE_CURVE('',#151,#151,#130,.T.);
#173=EDGE_CURVE('',#152,#152,#131,.T.);
#174=EDGE_CURVE('',#153,#153,#132,.T.);
#175=EDGE_CURVE('',#154,#154,#133,.T.);
#176=EDGE_CURVE('',#155,#155,#134,.T.);
#177=EDGE_CURVE('',#156,#156,#135,.T.);
#178=EDGE_CURVE('',#157,#157,#136,.T.);
#179=EDGE_CURVE('',#158,#158,#137,.T.);
#180=EDGE_CURVE('',#159,#159,#138,.T.);
#181=EDGE_CURVE('',#160,#160,#139,.T.);
#182=EDGE_CURVE('',#161,#161,#140,.T.);
#183=ORIENTED_EDGE('',*,*,#162,.T.);
#184=ORIENTED_EDGE('',*,*,#163,.F.);
#185=ORIENTED_EDGE('',*,*,#162,.F.);
#186=ORIENTED_EDGE('',*,*,#164,.T.);
#187=ORIENTED_EDGE('',*,*,#165,.T.);
#188=ORIENTED_EDGE('',*,*,#164,.F.);
#189=ORIENTED_EDGE('',*,*,#165,.F.);
#190=ORIENTED_EDGE('',*,*,#166,.T.);
#191=ORIENTED_EDGE('',*,*,#167,.T.);
#192=ORIENTED_EDGE('',*,*,#166,.F.);
#193=ORIENTED_EDGE('',*,*,#167,.F.);
#194=ORIENTED_EDGE('',*,*,#168,.T.);
#195=ORIENTED_EDGE('',*,*,#169,.T.);
#196=ORIENTED_EDGE('',*,*,#168,.F.);
#197=ORIENTED_EDGE('',*,*,#170,.T.);
#198=ORIENTED_EDGE('',*,*,#169,.F.);
#199=ORIENTED_EDGE('',*,*,#171,.T.);
#200=ORIENTED_EDGE('',*,*,#170,.F.);
#201=ORIENTED_EDGE('',*,*,#172,.T.);
#202=ORIENTED_EDGE('',*,*,#171,.F.);
#203=ORIENTED_EDGE('',*,*,#172,.F.);
#204=ORIENTED_EDGE('',*,*,#173,.T.);
#205=ORIENTED_EDGE('',*,*,#174,.T.);
#206=ORIENTED_EDGE('',*,*,#173,.F.);
#207=ORIENTED_EDGE('',*,*,#175,.T.);
#208=ORIENTED_EDGE('',*,*,#174,.F.);
#209=ORIENTED_EDGE('',*,*,#176,.T.);
#210=ORIENTED_EDGE('',*,*,#175,.F.);
#211=ORIENTED_EDGE('',*,*,#177,.F.);
#212=ORIENTED_EDGE('',*,*,#176,.F.);
#213=ORIENTED_EDGE('',*,*,#178,.F.);
#214=ORIENTED_EDGE('',*,*,#177,.T.);
#215=ORIENTED_EDGE('',*,*,#179,.F.);
#216=ORIENTED_EDGE('',*,*,#163,.T.);
#217=ORIENTED_EDGE('',*,*,#180,.F.);
#218=ORIENTED_EDGE('',*,*,#181,.F.);
#219=ORIENTED_EDGE('',*,*,#180,.T.);
#220=ORIENTED_EDGE('',*,*,#179,.T.);
#221=ORIENTED_EDGE('',*,*,#181,.T.);
#222=ORIENTED_EDGE('',*,*,#182,.F.);
#223=ORIENTED_EDGE('',*,*,#178,.T.);
#224=ORIENTED_EDGE('',*,*,#182,.T.);
#225=CYLINDRICAL_SURFACE('',#256,0.814);
#226=CYLINDRICAL_SURFACE('',#261,0.726);
#227=CYLINDRICAL_SURFACE('',#265,0.672);
#228=CYLINDRICAL_SURFACE('',#276,0.814);
#229=CYLINDRICAL_SURFACE('',#286,0.675);
#230=CYLINDRICAL_SURFACE('',#292,0.995);
#231=CYLINDRICAL_SURFACE('',#296,0.995);
#232=ADVANCED_FACE('',(#56,#36),#225,.F.);
#233=ADVANCED_FACE('',(#57,#37),#28,.F.);
#234=ADVANCED_FACE('',(#58,#38),#226,.F.);
#235=ADVANCED_FACE('',(#59,#39),#29,.F.);
#236=ADVANCED_FACE('',(#60,#40),#227,.T.);
#237=ADVANCED_FACE('',(#61),#30,.F.);
#238=ADVANCED_FACE('',(#62),#31,.F.);
#239=ADVANCED_FACE('',(#63,#41),#27,.T.);
#240=ADVANCED_FACE('',(#64,#42),#21,.F.);
#241=ADVANCED_FACE('',(#65,#43),#32,.F.);
#242=ADVANCED_FACE('',(#66,#44),#228,.F.);
#243=ADVANCED_FACE('',(#67,#45),#33,.F.);
#244=ADVANCED_FACE('',(#68,#46),#22,.F.);
#245=ADVANCED_FACE('',(#69,#47),#23,.F.);
#246=ADVANCED_FACE('',(#70,#48),#24,.F.);
#247=ADVANCED_FACE('',(#71,#49),#229,.F.);
#248=ADVANCED_FACE('',(#72,#50),#34,.T.);
#249=ADVANCED_FACE('',(#73,#51),#35,.T.);
#250=ADVANCED_FACE('',(#74,#52),#230,.T.);
#251=ADVANCED_FACE('',(#75,#53),#25,.T.);
#252=ADVANCED_FACE('',(#76,#54),#231,.T.);
#253=ADVANCED_FACE('',(#77,#55),#26,.T.);
#254=CLOSED_SHELL('',(#232,#233,#234,#235,#236,#237,#238,#239,#240,#241,
#242,#243,#244,#245,#246,#247,#248,#249,#250,#251,#252,#253));
#255=AXIS2_PLACEMENT_3D('placement',#387,#299,#300);
#256=AXIS2_PLACEMENT_3D('',#388,#301,#302);
#257=AXIS2_PLACEMENT_3D('',#390,#303,#304);
#258=AXIS2_PLACEMENT_3D('',#392,#305,#306);
#259=AXIS2_PLACEMENT_3D('',#393,#307,#308);
#260=AXIS2_PLACEMENT_3D('',#395,#309,#310);
#261=AXIS2_PLACEMENT_3D('',#396,#311,#312);
#262=AXIS2_PLACEMENT_3D('',#398,#313,#314);
#263=AXIS2_PLACEMENT_3D('',#399,#315,#316);
#264=AXIS2_PLACEMENT_3D('',#401,#317,#318);
#265=AXIS2_PLACEMENT_3D('',#402,#319,#320);
#266=AXIS2_PLACEMENT_3D('',#404,#321,#322);
#267=AXIS2_PLACEMENT_3D('',#405,#323,#324);
#268=AXIS2_PLACEMENT_3D('',#406,#325,#326);
#269=AXIS2_PLACEMENT_3D('',#408,#327,#328);
#270=AXIS2_PLACEMENT_3D('',#409,#329,#330);
#271=AXIS2_PLACEMENT_3D('',#411,#331,#332);
#272=AXIS2_PLACEMENT_3D('',#412,#333,#334);
#273=AXIS2_PLACEMENT_3D('',#414,#335,#336);
#274=AXIS2_PLACEMENT_3D('',#415,#337,#338);
#275=AXIS2_PLACEMENT_3D('',#417,#339,#340);
#276=AXIS2_PLACEMENT_3D('',#418,#341,#342);
#277=AXIS2_PLACEMENT_3D('',#420,#343,#344);
#278=AXIS2_PLACEMENT_3D('',#421,#345,#346);
#279=AXIS2_PLACEMENT_3D('',#423,#347,#348);
#280=AXIS2_PLACEMENT_3D('',#424,#349,#350);
#281=AXIS2_PLACEMENT_3D('',#426,#351,#352);
#282=AXIS2_PLACEMENT_3D('',#427,#353,#354);
#283=AXIS2_PLACEMENT_3D('',#429,#355,#356);
#284=AXIS2_PLACEMENT_3D('',#430,#357,#358);
#285=AXIS2_PLACEMENT_3D('',#432,#359,#360);
#286=AXIS2_PLACEMENT_3D('',#433,#361,#362);
#287=AXIS2_PLACEMENT_3D('',#435,#363,#364);
#288=AXIS2_PLACEMENT_3D('',#436,#365,#366);
#289=AXIS2_PLACEMENT_3D('',#438,#367,#368);
#290=AXIS2_PLACEMENT_3D('',#439,#369,#370);
#291=AXIS2_PLACEMENT_3D('',#441,#371,#372);
#292=AXIS2_PLACEMENT_3D('',#442,#373,#374);
#293=AXIS2_PLACEMENT_3D('',#444,#375,#376);
#294=AXIS2_PLACEMENT_3D('',#446,#377,#378);
#295=AXIS2_PLACEMENT_3D('',#447,#379,#380);
#296=AXIS2_PLACEMENT_3D('',#448,#381,#382);
#297=AXIS2_PLACEMENT_3D('',#450,#383,#384);
#298=AXIS2_PLACEMENT_3D('',#451,#385,#386);
#299=DIRECTION('axis',(0.,0.,1.));
#300=DIRECTION('refdir',(1.,0.,0.));
#301=DIRECTION('center_axis',(-1.,0.,0.));
#302=DIRECTION('ref_axis',(0.,1.,0.));
#303=DIRECTION('center_axis',(-1.,0.,0.));
#304=DIRECTION('ref_axis',(0.,0.,1.));
#305=DIRECTION('center_axis',(-1.,-8.15784413984409E-34,-6.58712809727844E-50));
#306=DIRECTION('ref_axis',(0.,1.,0.));
#307=DIRECTION('center_axis',(-1.,0.,0.));
#308=DIRECTION('ref_axis',(0.,0.,1.));
#309=DIRECTION('center_axis',(-1.,0.,0.));
#310=DIRECTION('ref_axis',(0.,0.,1.));
#311=DIRECTION('center_axis',(-1.,0.,0.));
#312=DIRECTION('ref_axis',(0.,1.,0.));
#313=DIRECTION('center_axis',(-1.,0.,0.));
#314=DIRECTION('ref_axis',(0.,0.,1.));
#315=DIRECTION('center_axis',(-1.,0.,0.));
#316=DIRECTION('ref_axis',(0.,0.,1.));
#317=DIRECTION('center_axis',(-1.,0.,0.));
#318=DIRECTION('ref_axis',(0.,0.,1.));
#319=DIRECTION('center_axis',(-1.,0.,0.));
#320=DIRECTION('ref_axis',(0.,1.,0.));
#321=DIRECTION('center_axis',(-1.,0.,0.));
#322=DIRECTION('ref_axis',(0.,0.,1.));
#323=DIRECTION('center_axis',(-1.,0.,0.));
#324=DIRECTION('ref_axis',(0.,0.,1.));
#325=DIRECTION('center_axis',(1.,0.,0.));
#326=DIRECTION('ref_axis',(0.,0.,-1.));
#327=DIRECTION('center_axis',(-1.,0.,0.));
#328=DIRECTION('ref_axis',(0.,0.,1.));
#329=DIRECTION('center_axis',(-1.,0.,0.));
#330=DIRECTION('ref_axis',(0.,0.,1.));
#331=DIRECTION('center_axis',(-1.,0.,0.));
#332=DIRECTION('ref_axis',(0.,0.,1.));
#333=DIRECTION('center_axis',(1.,0.,0.));
#334=DIRECTION('ref_axis',(0.,1.,0.));
#335=DIRECTION('center_axis',(-1.,0.,0.));
#336=DIRECTION('ref_axis',(0.,0.,1.));
#337=DIRECTION('center_axis',(1.,0.,0.));
#338=DIRECTION('ref_axis',(0.,0.,-1.));
#339=DIRECTION('center_axis',(-1.,0.,0.));
#340=DIRECTION('ref_axis',(0.,0.,1.));
#341=DIRECTION('center_axis',(-1.,0.,0.));
#342=DIRECTION('ref_axis',(0.,1.,0.));
#343=DIRECTION('center_axis',(-1.,0.,0.));
#344=DIRECTION('ref_axis',(0.,0.,1.));
#345=DIRECTION('center_axis',(-1.,0.,0.));
#346=DIRECTION('ref_axis',(0.,0.,1.));
#347=DIRECTION('center_axis',(-1.,0.,0.));
#348=DIRECTION('ref_axis',(0.,0.,1.));
#349=DIRECTION('center_axis',(1.,0.,0.));
#350=DIRECTION('ref_axis',(0.,1.,0.));
#351=DIRECTION('center_axis',(-1.,0.,0.));
#352=DIRECTION('ref_axis',(0.,0.,1.));
#353=DIRECTION('center_axis',(-1.,0.,0.));
#354=DIRECTION('ref_axis',(0.,1.,0.));
#355=DIRECTION('center_axis',(-1.,0.,0.));
#356=DIRECTION('ref_axis',(0.,0.,1.));
#357=DIRECTION('center_axis',(-1.,0.,0.));
#358=DIRECTION('ref_axis',(0.,1.,0.));
#359=DIRECTION('center_axis',(-1.,0.,0.));
#360=DIRECTION('ref_axis',(0.,0.,1.));
#361=DIRECTION('center_axis',(-1.,0.,0.));
#362=DIRECTION('ref_axis',(0.,1.,0.));
#363=DIRECTION('center_axis',(1.,8.15784413984409E-34,6.58712809727844E-50));
#364=DIRECTION('ref_axis',(0.,1.,0.));
#365=DIRECTION('center_axis',(-1.,-8.15784413984409E-34,-6.58712809727844E-50));
#366=DIRECTION('ref_axis',(0.,0.,1.));
#367=DIRECTION('center_axis',(1.,8.15784413984409E-34,6.58712809727844E-50));
#368=DIRECTION('ref_axis',(8.15784413984408E-34,-1.,5.58456713873079E-83));
#369=DIRECTION('center_axis',(1.,8.15784413984409E-34,6.58712809727844E-50));
#370=DIRECTION('ref_axis',(0.,0.,-1.));
#371=DIRECTION('center_axis',(-1.,-8.15784413984409E-34,-6.58712809727844E-50));
#372=DIRECTION('ref_axis',(8.15784413984409E-34,-1.,5.58456713873079E-83));
#373=DIRECTION('center_axis',(1.,8.15784413984409E-34,6.58712809727844E-50));
#374=DIRECTION('ref_axis',(-2.15606412031461E-33,1.,-1.44131612505106E-82));
#375=DIRECTION('center_axis',(1.,8.15784413984409E-34,6.58712809727844E-50));
#376=DIRECTION('ref_axis',(2.15606412031461E-33,-1.,1.44131612505106E-82));
#377=DIRECTION('center_axis',(-1.,-2.15606412031461E-33,-6.58712809727844E-50));
#378=DIRECTION('ref_axis',(-2.15606412031461E-33,1.,-1.44131612505106E-82));
#379=DIRECTION('center_axis',(-1.,-8.15784413984408E-34,-6.58712809727844E-50));
#380=DIRECTION('ref_axis',(1.49967072567597E-33,-1.,1.00894138778184E-82));
#381=DIRECTION('center_axis',(1.,8.15784413984409E-34,6.58712809727844E-50));
#382=DIRECTION('ref_axis',(-2.15606412031461E-33,1.,-1.44131612505106E-82));
#383=DIRECTION('center_axis',(-1.,-8.15784413984409E-34,-6.58712809727844E-50));
#384=DIRECTION('ref_axis',(2.15606412031461E-33,-1.,1.44131612505106E-82));
#385=DIRECTION('center_axis',(1.,8.15784413984409E-34,6.58712809727844E-50));
#386=DIRECTION('ref_axis',(1.49967072567597E-33,-1.,1.00894138778184E-82));
#387=CARTESIAN_POINT('',(0.,0.,0.));
#388=CARTESIAN_POINT('Origin',(0.7715,0.,0.));
#389=CARTESIAN_POINT('',(0.697,0.814,0.));
#390=CARTESIAN_POINT('Origin',(0.697,0.,0.));
#391=CARTESIAN_POINT('',(0.846,0.814,0.));
#392=CARTESIAN_POINT('Origin',(0.846,0.,0.));
#393=CARTESIAN_POINT('Origin',(0.697,0.726,0.));
#394=CARTESIAN_POINT('',(0.697,0.726,0.));
#395=CARTESIAN_POINT('Origin',(0.697,0.,0.));
#396=CARTESIAN_POINT('Origin',(0.691,0.,0.));
#397=CARTESIAN_POINT('',(0.685000000000001,0.726,0.));
#398=CARTESIAN_POINT('Origin',(0.685000000000001,0.,0.));
#399=CARTESIAN_POINT('Origin',(0.685000000000001,0.672,0.));
#400=CARTESIAN_POINT('',(0.685000000000001,0.672,0.));
#401=CARTESIAN_POINT('Origin',(0.685000000000001,0.,0.));
#402=CARTESIAN_POINT('Origin',(0.7125,0.,0.));
#403=CARTESIAN_POINT('',(0.74,0.672,0.));
#404=CARTESIAN_POINT('Origin',(0.74,0.,0.));
#405=CARTESIAN_POINT('Origin',(0.74,-8.74191357972564E-17,0.));
#406=CARTESIAN_POINT('Origin',(0.105000000000001,0.489310490409133,0.));
#407=CARTESIAN_POINT('',(0.105000000000001,0.489310490409133,0.));
#408=CARTESIAN_POINT('Origin',(0.105000000000001,0.,0.));
#409=CARTESIAN_POINT('Origin',(0.0355000000000006,0.,0.));
#410=CARTESIAN_POINT('',(0.000750000000000562,0.549499255972151,0.));
#411=CARTESIAN_POINT('Origin',(0.000750000000000564,0.,0.));
#412=CARTESIAN_POINT('Origin',(0.000375000000000555,0.,0.));
#413=CARTESIAN_POINT('',(5.68224382682167E-16,0.549066243270259,0.));
#414=CARTESIAN_POINT('Origin',(5.68224382682167E-16,0.,0.));
#415=CARTESIAN_POINT('Origin',(4.58950462935596E-16,0.814,0.));
#416=CARTESIAN_POINT('',(4.58950462935596E-16,0.814,0.));
#417=CARTESIAN_POINT('Origin',(4.58950462935596E-16,0.,0.));
#418=CARTESIAN_POINT('Origin',(-0.0319999999999996,0.,0.));
#419=CARTESIAN_POINT('',(-0.0639999999999996,0.814,0.));
#420=CARTESIAN_POINT('Origin',(-0.0639999999999996,0.,0.));
#421=CARTESIAN_POINT('Origin',(-0.0639999999999995,0.675,0.));
#422=CARTESIAN_POINT('',(-0.0639999999999995,0.675,0.));
#423=CARTESIAN_POINT('Origin',(-0.0639999999999995,0.,0.));
#424=CARTESIAN_POINT('Origin',(-0.0922494425624938,0.,0.));
#425=CARTESIAN_POINT('',(-0.120498885124988,0.577141060392522,0.));
#426=CARTESIAN_POINT('Origin',(-0.120498885124988,0.,0.));
#427=CARTESIAN_POINT('Origin',(-0.190499442562494,0.,0.));
#428=CARTESIAN_POINT('',(-0.2605,0.5815,0.));
#429=CARTESIAN_POINT('Origin',(-0.2605,0.,0.));
#430=CARTESIAN_POINT('Origin',(-0.30725,0.,0.));
#431=CARTESIAN_POINT('',(-0.353999999999999,0.675,0.));
#432=CARTESIAN_POINT('Origin',(-0.353999999999999,0.,0.));
#433=CARTESIAN_POINT('Origin',(-0.383999999999999,0.,0.));
#434=CARTESIAN_POINT('',(-0.413999999999999,0.675,0.));
#435=CARTESIAN_POINT('Origin',(-0.413999999999999,0.,0.));
#436=CARTESIAN_POINT('Origin',(-0.413999999999999,0.4975,1.71841454016214E-66));
#437=CARTESIAN_POINT('',(-0.413999999999999,0.955,1.16949906790037E-16));
#438=CARTESIAN_POINT('Origin',(-0.413999999999999,-3.01082235214151E-34,
1.71841454016214E-66));
#439=CARTESIAN_POINT('Origin',(0.846,0.4975,8.29978140257083E-50));
#440=CARTESIAN_POINT('',(0.846,0.955,-1.16949906790037E-16));
#441=CARTESIAN_POINT('Origin',(0.846,7.26806126406203E-34,8.29978140257083E-50));
#442=CARTESIAN_POINT('Origin',(0.216,2.12861945596026E-34,4.14989070128541E-50));
#443=CARTESIAN_POINT('',(0.806,0.995,1.21848332205327E-16));
#444=CARTESIAN_POINT('Origin',(0.806,6.94174749846827E-34,8.03629627867969E-50));
#445=CARTESIAN_POINT('',(-0.0739999999999996,-0.995,1.21848332205327E-16));
#446=CARTESIAN_POINT('Origin',(-0.0739999999999996,-2.37155344594522E-35,
2.23962355307467E-50));
#447=CARTESIAN_POINT('Origin',(0.826,7.10490438126515E-34,8.16803884062526E-50));
#448=CARTESIAN_POINT('Origin',(0.216,2.12861945596026E-34,4.14989070128541E-50));
#449=CARTESIAN_POINT('',(-0.374,0.995,-1.21848332205327E-16));
#450=CARTESIAN_POINT('Origin',(-0.374,-2.68450858654775E-34,2.63485123891137E-51));
#451=CARTESIAN_POINT('Origin',(-0.393999999999999,-2.84766546934463E-34,
1.31742561945568E-51));
#452=UNCERTAINTY_MEASURE_WITH_UNIT(LENGTH_MEASURE(0.000393700787401575),
#456,'DISTANCE_ACCURACY_VALUE',
'Maximum model space distance between geometric entities at asserted c
onnectivities');
#453=UNCERTAINTY_MEASURE_WITH_UNIT(LENGTH_MEASURE(1.E-6),#457,
'DISTANCE_ACCURACY_VALUE',
'Maximum model space distance between geometric entities at asserted c
onnectivities');
#454=(
GEOMETRIC_REPRESENTATION_CONTEXT(3)
GLOBAL_UNCERTAINTY_ASSIGNED_CONTEXT((#452))
GLOBAL_UNIT_ASSIGNED_CONTEXT((#456,#462,#459))
REPRESENTATION_CONTEXT('','3D')
);
#455=(
GEOMETRIC_REPRESENTATION_CONTEXT(3)
GLOBAL_UNCERTAINTY_ASSIGNED_CONTEXT((#453))
GLOBAL_UNIT_ASSIGNED_CONTEXT((#457,#462,#459))
REPRESENTATION_CONTEXT('','3D')
);
#456=(
CONVERSION_BASED_UNIT('__CONSTANT UNIT inch',#458)
LENGTH_UNIT()
NAMED_UNIT(#461)
);
#457=(
LENGTH_UNIT()
NAMED_UNIT(*)
SI_UNIT(.MILLI.,.METRE.)
);
#458=LENGTH_MEASURE_WITH_UNIT(LENGTH_MEASURE(25.4),#457);
#459=(
NAMED_UNIT(*)
SI_UNIT($,.STERADIAN.)
SOLID_ANGLE_UNIT()
);
#460=DIMENSIONAL_EXPONENTS(0.,0.,0.,0.,0.,0.,0.);
#461=DIMENSIONAL_EXPONENTS(1.,0.,0.,0.,0.,0.,0.);
#462=(
CONVERSION_BASED_UNIT('degree',#464)
NAMED_UNIT(#460)
PLANE_ANGLE_UNIT()
);
#463=(
NAMED_UNIT(*)
PLANE_ANGLE_UNIT()
SI_UNIT($,.RADIAN.)
);
#464=PLANE_ANGLE_MEASURE_WITH_UNIT(PLANE_ANGLE_MEASURE(0.01745329252),#463);
#465=SHAPE_DEFINITION_REPRESENTATION(#466,#467);
#466=PRODUCT_DEFINITION_SHAPE('',$,#469);
#467=SHAPE_REPRESENTATION('',(#255),#454);
#468=PRODUCT_DEFINITION_CONTEXT('part definition',#473,'design');
#469=PRODUCT_DEFINITION('MET161C','MET161C',#470,#468);
#470=PRODUCT_DEFINITION_FORMATION('',$,#475);
#471=PRODUCT_RELATED_PRODUCT_CATEGORY('MET161C','MET161C',(#475));
#472=APPLICATION_PROTOCOL_DEFINITION('international standard',
'automotive_design',2009,#473);
#473=APPLICATION_CONTEXT(
'Core Data for Automotive Mechanical Design Process');
#474=PRODUCT_CONTEXT('part definition',#473,'mechanical');
#475=PRODUCT('MET161C','MET161C',$,(#474));
#476=PRESENTATION_STYLE_ASSIGNMENT((#479));
#477=PRESENTATION_STYLE_ASSIGNMENT((#480));
#478=PRESENTATION_STYLE_ASSIGNMENT((#481));
#479=SURFACE_STYLE_USAGE(.BOTH.,#482);
#480=SURFACE_STYLE_USAGE(.BOTH.,#483);
#481=SURFACE_STYLE_USAGE(.BOTH.,#484);
#482=SURFACE_SIDE_STYLE('',(#485));
#483=SURFACE_SIDE_STYLE('',(#486));
#484=SURFACE_SIDE_STYLE('',(#487));
#485=SURFACE_STYLE_FILL_AREA(#488);
#486=SURFACE_STYLE_FILL_AREA(#489);
#487=SURFACE_STYLE_FILL_AREA(#490);
#488=FILL_AREA_STYLE('',(#491));
#489=FILL_AREA_STYLE('',(#492));
#490=FILL_AREA_STYLE('',(#493));
#491=FILL_AREA_STYLE_COLOUR('',#494);
#492=FILL_AREA_STYLE_COLOUR('',#495);
#493=FILL_AREA_STYLE_COLOUR('',#496);
#494=COLOUR_RGB('',0.63921568627451,0.63921568627451,0.686274509803922);
#495=COLOUR_RGB('',0.956862745098039,0.956862745098039,0.956862745098039);
#496=COLOUR_RGB('',0.580392156862745,0.580392156862745,0.592156862745098);
ENDSEC;
END-ISO-10303-21;
