ISO-10303-21;
HEADER;
/* Generated by software containing ST-Developer
 * from STEP Tools, Inc. (www.steptools.com) 
 */

FILE_DESCRIPTION(
/* description */ (''),
/* implementation_level */ '2;1');

FILE_NAME(
/* name */ 'S:\\Marketing\\CAD Models\\MIT\\MIT-162P.stp',
/* time_stamp */ '2015-06-04T15:41:03-05:00',
/* author */ ('scottg'),
/* organization */ ('FasTest,Inc.'),
/* preprocessor_version */ 'ST-DEVELOPER v15.2',
/* originating_system */ 'Autodesk Inventor 2014',
/* authorisation */ '');

FILE_SCHEMA (('AUTOMOTIVE_DESIGN { 1 0 10303 214 3 1 1 }'));
ENDSEC;

DATA;
#10=SHAPE_REPRESENTATION_RELATIONSHIP('SRR','None',#490,#11);
#11=ADVANCED_BREP_SHAPE_REPRESENTATION($,(#266),#478);
#12=STYLED_ITEM($,(#498),#266);
#13=TOROIDAL_SURFACE($,#313,0.6255,0.0695);
#14=PLANE($,#274);
#15=PLANE($,#277);
#16=PLANE($,#283);
#17=PLANE($,#287);
#18=PLANE($,#295);
#19=PLANE($,#298);
#20=PLANE($,#312);
#21=CYLINDRICAL_SURFACE($,#273,0.4375);
#22=CYLINDRICAL_SURFACE($,#281,0.995);
#23=CYLINDRICAL_SURFACE($,#285,0.685);
#24=CYLINDRICAL_SURFACE($,#289,0.995);
#25=CYLINDRICAL_SURFACE($,#293,0.865);
#26=CYLINDRICAL_SURFACE($,#297,0.695);
#27=CYLINDRICAL_SURFACE($,#300,0.55);
#28=CYLINDRICAL_SURFACE($,#308,0.575);
#29=FACE_BOUND($,#77,.T.);
#30=FACE_BOUND($,#79,.T.);
#31=FACE_BOUND($,#81,.T.);
#32=FACE_BOUND($,#84,.T.);
#33=FACE_BOUND($,#86,.T.);
#34=FACE_BOUND($,#87,.T.);
#35=FACE_BOUND($,#88,.T.);
#36=FACE_BOUND($,#90,.T.);
#37=FACE_BOUND($,#92,.T.);
#38=FACE_BOUND($,#94,.T.);
#39=FACE_BOUND($,#96,.T.);
#40=FACE_BOUND($,#98,.T.);
#41=FACE_BOUND($,#99,.T.);
#42=FACE_BOUND($,#100,.T.);
#43=FACE_BOUND($,#102,.T.);
#44=FACE_BOUND($,#104,.T.);
#45=FACE_BOUND($,#106,.T.);
#46=FACE_BOUND($,#108,.T.);
#47=FACE_BOUND($,#110,.T.);
#48=FACE_BOUND($,#112,.T.);
#49=FACE_BOUND($,#114,.T.);
#50=FACE_BOUND($,#116,.T.);
#51=FACE_BOUND($,#117,.T.);
#52=FACE_BOUND($,#118,.T.);
#53=FACE_BOUND($,#120,.T.);
#54=FACE_OUTER_BOUND($,#75,.T.);
#55=FACE_OUTER_BOUND($,#76,.T.);
#56=FACE_OUTER_BOUND($,#78,.T.);
#57=FACE_OUTER_BOUND($,#80,.T.);
#58=FACE_OUTER_BOUND($,#82,.T.);
#59=FACE_OUTER_BOUND($,#83,.T.);
#60=FACE_OUTER_BOUND($,#85,.T.);
#61=FACE_OUTER_BOUND($,#89,.T.);
#62=FACE_OUTER_BOUND($,#91,.T.);
#63=FACE_OUTER_BOUND($,#93,.T.);
#64=FACE_OUTER_BOUND($,#95,.T.);
#65=FACE_OUTER_BOUND($,#97,.T.);
#66=FACE_OUTER_BOUND($,#101,.T.);
#67=FACE_OUTER_BOUND($,#103,.T.);
#68=FACE_OUTER_BOUND($,#105,.T.);
#69=FACE_OUTER_BOUND($,#107,.T.);
#70=FACE_OUTER_BOUND($,#109,.T.);
#71=FACE_OUTER_BOUND($,#111,.T.);
#72=FACE_OUTER_BOUND($,#113,.T.);
#73=FACE_OUTER_BOUND($,#115,.T.);
#74=FACE_OUTER_BOUND($,#119,.T.);
#75=EDGE_LOOP($,(#187));
#76=EDGE_LOOP($,(#188));
#77=EDGE_LOOP($,(#189));
#78=EDGE_LOOP($,(#190));
#79=EDGE_LOOP($,(#191));
#80=EDGE_LOOP($,(#192));
#81=EDGE_LOOP($,(#193));
#82=EDGE_LOOP($,(#194));
#83=EDGE_LOOP($,(#195));
#84=EDGE_LOOP($,(#196));
#85=EDGE_LOOP($,(#197));
#86=EDGE_LOOP($,(#198));
#87=EDGE_LOOP($,(#199));
#88=EDGE_LOOP($,(#200));
#89=EDGE_LOOP($,(#201));
#90=EDGE_LOOP($,(#202));
#91=EDGE_LOOP($,(#203));
#92=EDGE_LOOP($,(#204));
#93=EDGE_LOOP($,(#205));
#94=EDGE_LOOP($,(#206));
#95=EDGE_LOOP($,(#207));
#96=EDGE_LOOP($,(#208));
#97=EDGE_LOOP($,(#209));
#98=EDGE_LOOP($,(#210));
#99=EDGE_LOOP($,(#211));
#100=EDGE_LOOP($,(#212));
#101=EDGE_LOOP($,(#213));
#102=EDGE_LOOP($,(#214));
#103=EDGE_LOOP($,(#215));
#104=EDGE_LOOP($,(#216));
#105=EDGE_LOOP($,(#217));
#106=EDGE_LOOP($,(#218));
#107=EDGE_LOOP($,(#219));
#108=EDGE_LOOP($,(#220));
#109=EDGE_LOOP($,(#221));
#110=EDGE_LOOP($,(#222));
#111=EDGE_LOOP($,(#223));
#112=EDGE_LOOP($,(#224));
#113=EDGE_LOOP($,(#225));
#114=EDGE_LOOP($,(#226));
#115=EDGE_LOOP($,(#227));
#116=EDGE_LOOP($,(#228));
#117=EDGE_LOOP($,(#229));
#118=EDGE_LOOP($,(#230));
#119=EDGE_LOOP($,(#231));
#120=EDGE_LOOP($,(#232));
#121=CIRCLE($,#269,0.4375);
#122=CIRCLE($,#271,0.4525);
#123=CIRCLE($,#272,0.4375);
#124=CIRCLE($,#275,0.695);
#125=CIRCLE($,#276,0.6255);
#126=CIRCLE($,#278,0.955);
#127=CIRCLE($,#280,0.995);
#128=CIRCLE($,#282,0.995);
#129=CIRCLE($,#284,0.685);
#130=CIRCLE($,#286,0.685);
#131=CIRCLE($,#288,0.995);
#132=CIRCLE($,#290,0.995);
#133=CIRCLE($,#292,0.865);
#134=CIRCLE($,#294,0.865);
#135=CIRCLE($,#296,0.695);
#136=CIRCLE($,#299,0.55);
#137=CIRCLE($,#301,0.55);
#138=CIRCLE($,#303,0.62);
#139=CIRCLE($,#305,0.604350551567007);
#140=CIRCLE($,#307,0.575);
#141=CIRCLE($,#309,0.575);
#142=CIRCLE($,#311,0.555);
#143=VERTEX_POINT($,#410);
#144=VERTEX_POINT($,#413);
#145=VERTEX_POINT($,#415);
#146=VERTEX_POINT($,#419);
#147=VERTEX_POINT($,#421);
#148=VERTEX_POINT($,#424);
#149=VERTEX_POINT($,#427);
#150=VERTEX_POINT($,#430);
#151=VERTEX_POINT($,#433);
#152=VERTEX_POINT($,#436);
#153=VERTEX_POINT($,#439);
#154=VERTEX_POINT($,#442);
#155=VERTEX_POINT($,#445);
#156=VERTEX_POINT($,#448);
#157=VERTEX_POINT($,#451);
#158=VERTEX_POINT($,#455);
#159=VERTEX_POINT($,#458);
#160=VERTEX_POINT($,#461);
#161=VERTEX_POINT($,#464);
#162=VERTEX_POINT($,#467);
#163=VERTEX_POINT($,#470);
#164=VERTEX_POINT($,#473);
#165=EDGE_CURVE($,#143,#143,#121,.T.);
#166=EDGE_CURVE($,#144,#144,#122,.T.);
#167=EDGE_CURVE($,#145,#145,#123,.T.);
#168=EDGE_CURVE($,#146,#146,#124,.T.);
#169=EDGE_CURVE($,#147,#147,#125,.T.);
#170=EDGE_CURVE($,#148,#148,#126,.T.);
#171=EDGE_CURVE($,#149,#149,#127,.T.);
#172=EDGE_CURVE($,#150,#150,#128,.T.);
#173=EDGE_CURVE($,#151,#151,#129,.T.);
#174=EDGE_CURVE($,#152,#152,#130,.T.);
#175=EDGE_CURVE($,#153,#153,#131,.T.);
#176=EDGE_CURVE($,#154,#154,#132,.T.);
#177=EDGE_CURVE($,#155,#155,#133,.T.);
#178=EDGE_CURVE($,#156,#156,#134,.T.);
#179=EDGE_CURVE($,#157,#157,#135,.T.);
#180=EDGE_CURVE($,#158,#158,#136,.T.);
#181=EDGE_CURVE($,#159,#159,#137,.T.);
#182=EDGE_CURVE($,#160,#160,#138,.T.);
#183=EDGE_CURVE($,#161,#161,#139,.T.);
#184=EDGE_CURVE($,#162,#162,#140,.T.);
#185=EDGE_CURVE($,#163,#163,#141,.T.);
#186=EDGE_CURVE($,#164,#164,#142,.T.);
#187=ORIENTED_EDGE($,*,*,#165,.T.);
#188=ORIENTED_EDGE($,*,*,#166,.F.);
#189=ORIENTED_EDGE($,*,*,#167,.F.);
#190=ORIENTED_EDGE($,*,*,#167,.T.);
#191=ORIENTED_EDGE($,*,*,#165,.F.);
#192=ORIENTED_EDGE($,*,*,#168,.T.);
#193=ORIENTED_EDGE($,*,*,#169,.F.);
#194=ORIENTED_EDGE($,*,*,#170,.F.);
#195=ORIENTED_EDGE($,*,*,#171,.F.);
#196=ORIENTED_EDGE($,*,*,#170,.T.);
#197=ORIENTED_EDGE($,*,*,#172,.F.);
#198=ORIENTED_EDGE($,*,*,#171,.T.);
#199=ORIENTED_EDGE($,*,*,#173,.F.);
#200=ORIENTED_EDGE($,*,*,#172,.T.);
#201=ORIENTED_EDGE($,*,*,#174,.F.);
#202=ORIENTED_EDGE($,*,*,#173,.T.);
#203=ORIENTED_EDGE($,*,*,#175,.F.);
#204=ORIENTED_EDGE($,*,*,#174,.T.);
#205=ORIENTED_EDGE($,*,*,#176,.F.);
#206=ORIENTED_EDGE($,*,*,#175,.T.);
#207=ORIENTED_EDGE($,*,*,#177,.F.);
#208=ORIENTED_EDGE($,*,*,#176,.T.);
#209=ORIENTED_EDGE($,*,*,#178,.F.);
#210=ORIENTED_EDGE($,*,*,#177,.T.);
#211=ORIENTED_EDGE($,*,*,#179,.F.);
#212=ORIENTED_EDGE($,*,*,#178,.T.);
#213=ORIENTED_EDGE($,*,*,#168,.F.);
#214=ORIENTED_EDGE($,*,*,#179,.T.);
#215=ORIENTED_EDGE($,*,*,#169,.T.);
#216=ORIENTED_EDGE($,*,*,#180,.F.);
#217=ORIENTED_EDGE($,*,*,#181,.F.);
#218=ORIENTED_EDGE($,*,*,#180,.T.);
#219=ORIENTED_EDGE($,*,*,#182,.F.);
#220=ORIENTED_EDGE($,*,*,#181,.T.);
#221=ORIENTED_EDGE($,*,*,#183,.F.);
#222=ORIENTED_EDGE($,*,*,#182,.T.);
#223=ORIENTED_EDGE($,*,*,#184,.F.);
#224=ORIENTED_EDGE($,*,*,#183,.T.);
#225=ORIENTED_EDGE($,*,*,#185,.F.);
#226=ORIENTED_EDGE($,*,*,#184,.T.);
#227=ORIENTED_EDGE($,*,*,#186,.F.);
#228=ORIENTED_EDGE($,*,*,#185,.T.);
#229=ORIENTED_EDGE($,*,*,#166,.T.);
#230=ORIENTED_EDGE($,*,*,#186,.T.);
#231=ORIENTED_EDGE($,*,*,#169,.T.);
#232=ORIENTED_EDGE($,*,*,#169,.F.);
#233=CONICAL_SURFACE($,#268,0.21875,59.);
#234=CONICAL_SURFACE($,#270,0.445,45.);
#235=CONICAL_SURFACE($,#279,0.975,45.0000000000002);
#236=CONICAL_SURFACE($,#291,0.93,29.9999999999999);
#237=CONICAL_SURFACE($,#302,0.585,60.0000000000001);
#238=CONICAL_SURFACE($,#304,0.612175275783504,1.78329999999999);
#239=CONICAL_SURFACE($,#306,0.589675275783504,60.0000000000001);
#240=CONICAL_SURFACE($,#310,0.565,45.0000000000004);
#241=ADVANCED_FACE($,(#54),#233,.F.);
#242=ADVANCED_FACE($,(#55,#29),#234,.F.);
#243=ADVANCED_FACE($,(#56,#30),#21,.F.);
#244=ADVANCED_FACE($,(#57,#31),#14,.T.);
#245=ADVANCED_FACE($,(#58),#15,.T.);
#246=ADVANCED_FACE($,(#59,#32),#235,.T.);
#247=ADVANCED_FACE($,(#60,#33),#22,.T.);
#248=ADVANCED_FACE($,(#34,#35),#16,.T.);
#249=ADVANCED_FACE($,(#61,#36),#23,.T.);
#250=ADVANCED_FACE($,(#62,#37),#17,.T.);
#251=ADVANCED_FACE($,(#63,#38),#24,.T.);
#252=ADVANCED_FACE($,(#64,#39),#236,.T.);
#253=ADVANCED_FACE($,(#65,#40),#25,.T.);
#254=ADVANCED_FACE($,(#41,#42),#18,.T.);
#255=ADVANCED_FACE($,(#66,#43),#26,.F.);
#256=ADVANCED_FACE($,(#67,#44),#19,.T.);
#257=ADVANCED_FACE($,(#68,#45),#27,.T.);
#258=ADVANCED_FACE($,(#69,#46),#237,.T.);
#259=ADVANCED_FACE($,(#70,#47),#238,.T.);
#260=ADVANCED_FACE($,(#71,#48),#239,.T.);
#261=ADVANCED_FACE($,(#72,#49),#28,.T.);
#262=ADVANCED_FACE($,(#73,#50),#240,.T.);
#263=ADVANCED_FACE($,(#51,#52),#20,.T.);
#264=ADVANCED_FACE($,(#74,#53),#13,.T.);
#265=CLOSED_SHELL($,(#241,#242,#243,#244,#245,#246,#247,#248,#249,#250,
#251,#252,#253,#254,#255,#256,#257,#258,#259,#260,#261,#262,#263,#264));
#266=MANIFOLD_SOLID_BREP('Solid1',#265);
#267=AXIS2_PLACEMENT_3D('placement',#408,#314,#315);
#268=AXIS2_PLACEMENT_3D($,#409,#316,#317);
#269=AXIS2_PLACEMENT_3D($,#411,#318,#319);
#270=AXIS2_PLACEMENT_3D($,#412,#320,#321);
#271=AXIS2_PLACEMENT_3D($,#414,#322,#323);
#272=AXIS2_PLACEMENT_3D($,#416,#324,#325);
#273=AXIS2_PLACEMENT_3D($,#417,#326,#327);
#274=AXIS2_PLACEMENT_3D($,#418,#328,#329);
#275=AXIS2_PLACEMENT_3D($,#420,#330,#331);
#276=AXIS2_PLACEMENT_3D($,#422,#332,#333);
#277=AXIS2_PLACEMENT_3D($,#423,#334,#335);
#278=AXIS2_PLACEMENT_3D($,#425,#336,#337);
#279=AXIS2_PLACEMENT_3D($,#426,#338,#339);
#280=AXIS2_PLACEMENT_3D($,#428,#340,#341);
#281=AXIS2_PLACEMENT_3D($,#429,#342,#343);
#282=AXIS2_PLACEMENT_3D($,#431,#344,#345);
#283=AXIS2_PLACEMENT_3D($,#432,#346,#347);
#284=AXIS2_PLACEMENT_3D($,#434,#348,#349);
#285=AXIS2_PLACEMENT_3D($,#435,#350,#351);
#286=AXIS2_PLACEMENT_3D($,#437,#352,#353);
#287=AXIS2_PLACEMENT_3D($,#438,#354,#355);
#288=AXIS2_PLACEMENT_3D($,#440,#356,#357);
#289=AXIS2_PLACEMENT_3D($,#441,#358,#359);
#290=AXIS2_PLACEMENT_3D($,#443,#360,#361);
#291=AXIS2_PLACEMENT_3D($,#444,#362,#363);
#292=AXIS2_PLACEMENT_3D($,#446,#364,#365);
#293=AXIS2_PLACEMENT_3D($,#447,#366,#367);
#294=AXIS2_PLACEMENT_3D($,#449,#368,#369);
#295=AXIS2_PLACEMENT_3D($,#450,#370,#371);
#296=AXIS2_PLACEMENT_3D($,#452,#372,#373);
#297=AXIS2_PLACEMENT_3D($,#453,#374,#375);
#298=AXIS2_PLACEMENT_3D($,#454,#376,#377);
#299=AXIS2_PLACEMENT_3D($,#456,#378,#379);
#300=AXIS2_PLACEMENT_3D($,#457,#380,#381);
#301=AXIS2_PLACEMENT_3D($,#459,#382,#383);
#302=AXIS2_PLACEMENT_3D($,#460,#384,#385);
#303=AXIS2_PLACEMENT_3D($,#462,#386,#387);
#304=AXIS2_PLACEMENT_3D($,#463,#388,#389);
#305=AXIS2_PLACEMENT_3D($,#465,#390,#391);
#306=AXIS2_PLACEMENT_3D($,#466,#392,#393);
#307=AXIS2_PLACEMENT_3D($,#468,#394,#395);
#308=AXIS2_PLACEMENT_3D($,#469,#396,#397);
#309=AXIS2_PLACEMENT_3D($,#471,#398,#399);
#310=AXIS2_PLACEMENT_3D($,#472,#400,#401);
#311=AXIS2_PLACEMENT_3D($,#474,#402,#403);
#312=AXIS2_PLACEMENT_3D($,#475,#404,#405);
#313=AXIS2_PLACEMENT_3D($,#476,#406,#407);
#314=DIRECTION('axis',(0.,0.,1.));
#315=DIRECTION('refdir',(1.,0.,0.));
#316=DIRECTION('center_axis',(1.,0.,0.));
#317=DIRECTION('ref_axis',(0.,1.,0.));
#318=DIRECTION('center_axis',(1.,0.,0.));
#319=DIRECTION('ref_axis',(0.,1.,0.));
#320=DIRECTION('center_axis',(1.,0.,0.));
#321=DIRECTION('ref_axis',(0.,1.,0.));
#322=DIRECTION('center_axis',(-1.,0.,0.));
#323=DIRECTION('ref_axis',(0.,1.,0.));
#324=DIRECTION('center_axis',(1.,0.,0.));
#325=DIRECTION('ref_axis',(0.,1.,0.));
#326=DIRECTION('center_axis',(1.,0.,0.));
#327=DIRECTION('ref_axis',(0.,1.,0.));
#328=DIRECTION('center_axis',(1.,0.,0.));
#329=DIRECTION('ref_axis',(0.,0.,-1.));
#330=DIRECTION('center_axis',(1.,0.,0.));
#331=DIRECTION('ref_axis',(0.,1.,0.));
#332=DIRECTION('center_axis',(1.,0.,0.));
#333=DIRECTION('ref_axis',(0.,0.,-1.));
#334=DIRECTION('center_axis',(-1.,0.,0.));
#335=DIRECTION('ref_axis',(0.,0.,1.));
#336=DIRECTION('center_axis',(1.,0.,0.));
#337=DIRECTION('ref_axis',(0.,1.,0.));
#338=DIRECTION('center_axis',(1.,0.,0.));
#339=DIRECTION('ref_axis',(0.,1.,0.));
#340=DIRECTION('center_axis',(1.,0.,0.));
#341=DIRECTION('ref_axis',(0.,1.,0.));
#342=DIRECTION('center_axis',(1.,0.,0.));
#343=DIRECTION('ref_axis',(0.,1.,0.));
#344=DIRECTION('center_axis',(1.,0.,0.));
#345=DIRECTION('ref_axis',(0.,1.,0.));
#346=DIRECTION('center_axis',(1.,0.,0.));
#347=DIRECTION('ref_axis',(0.,0.,-1.));
#348=DIRECTION('center_axis',(1.,0.,0.));
#349=DIRECTION('ref_axis',(0.,1.,0.));
#350=DIRECTION('center_axis',(1.,0.,0.));
#351=DIRECTION('ref_axis',(0.,1.,0.));
#352=DIRECTION('center_axis',(1.,0.,0.));
#353=DIRECTION('ref_axis',(0.,1.,0.));
#354=DIRECTION('center_axis',(-1.,0.,0.));
#355=DIRECTION('ref_axis',(0.,0.,1.));
#356=DIRECTION('center_axis',(1.,0.,0.));
#357=DIRECTION('ref_axis',(0.,1.,0.));
#358=DIRECTION('center_axis',(1.,0.,0.));
#359=DIRECTION('ref_axis',(0.,1.,0.));
#360=DIRECTION('center_axis',(1.,0.,0.));
#361=DIRECTION('ref_axis',(0.,1.,0.));
#362=DIRECTION('center_axis',(-1.,0.,0.));
#363=DIRECTION('ref_axis',(0.,1.,0.));
#364=DIRECTION('center_axis',(1.,0.,0.));
#365=DIRECTION('ref_axis',(0.,1.,0.));
#366=DIRECTION('center_axis',(1.,0.,0.));
#367=DIRECTION('ref_axis',(0.,1.,0.));
#368=DIRECTION('center_axis',(1.,0.,0.));
#369=DIRECTION('ref_axis',(0.,1.,0.));
#370=DIRECTION('center_axis',(1.,0.,0.));
#371=DIRECTION('ref_axis',(0.,0.,-1.));
#372=DIRECTION('center_axis',(1.,0.,0.));
#373=DIRECTION('ref_axis',(0.,1.,0.));
#374=DIRECTION('center_axis',(1.,0.,0.));
#375=DIRECTION('ref_axis',(0.,1.,0.));
#376=DIRECTION('center_axis',(1.,0.,0.));
#377=DIRECTION('ref_axis',(0.,0.,-1.));
#378=DIRECTION('center_axis',(1.,0.,0.));
#379=DIRECTION('ref_axis',(0.,1.,0.));
#380=DIRECTION('center_axis',(1.,0.,0.));
#381=DIRECTION('ref_axis',(0.,1.,0.));
#382=DIRECTION('center_axis',(1.,0.,0.));
#383=DIRECTION('ref_axis',(0.,1.,0.));
#384=DIRECTION('center_axis',(1.,0.,0.));
#385=DIRECTION('ref_axis',(0.,1.,0.));
#386=DIRECTION('center_axis',(1.,0.,0.));
#387=DIRECTION('ref_axis',(0.,1.,0.));
#388=DIRECTION('center_axis',(-1.,0.,0.));
#389=DIRECTION('ref_axis',(0.,1.,0.));
#390=DIRECTION('center_axis',(1.,0.,0.));
#391=DIRECTION('ref_axis',(0.,1.,0.));
#392=DIRECTION('center_axis',(-1.,0.,0.));
#393=DIRECTION('ref_axis',(0.,1.,0.));
#394=DIRECTION('center_axis',(1.,0.,0.));
#395=DIRECTION('ref_axis',(0.,1.,0.));
#396=DIRECTION('center_axis',(1.,0.,0.));
#397=DIRECTION('ref_axis',(0.,1.,0.));
#398=DIRECTION('center_axis',(1.,0.,0.));
#399=DIRECTION('ref_axis',(0.,1.,0.));
#400=DIRECTION('center_axis',(-1.,0.,0.));
#401=DIRECTION('ref_axis',(0.,1.,0.));
#402=DIRECTION('center_axis',(1.,0.,0.));
#403=DIRECTION('ref_axis',(0.,1.,0.));
#404=DIRECTION('center_axis',(1.,0.,0.));
#405=DIRECTION('ref_axis',(0.,0.,-1.));
#406=DIRECTION('center_axis',(1.,0.,0.));
#407=DIRECTION('ref_axis',(0.,0.,-1.));
#408=CARTESIAN_POINT('',(0.,0.,0.));
#409=CARTESIAN_POINT('Origin',(0.938561739587721,0.,0.));
#410=CARTESIAN_POINT('',(1.07,0.4375,0.));
#411=CARTESIAN_POINT('Origin',(1.07,0.,0.));
#412=CARTESIAN_POINT('Origin',(2.0625,0.,0.));
#413=CARTESIAN_POINT('',(2.07,0.4525,0.));
#414=CARTESIAN_POINT('Origin',(2.07,0.,0.));
#415=CARTESIAN_POINT('',(2.055,0.4375,0.));
#416=CARTESIAN_POINT('Origin',(2.055,0.,0.));
#417=CARTESIAN_POINT('Origin',(1.57,0.,0.));
#418=CARTESIAN_POINT('Origin',(1.302,0.6225,0.));
#419=CARTESIAN_POINT('',(1.302,0.695,0.));
#420=CARTESIAN_POINT('Origin',(1.302,0.,0.));
#421=CARTESIAN_POINT('',(1.302,-7.66016572866669E-017,0.6255));
#422=CARTESIAN_POINT('Origin',(1.302,0.,0.));
#423=CARTESIAN_POINT('Origin',(-8.74191357972564E-017,0.4775,0.));
#424=CARTESIAN_POINT('',(-1.74838271594513E-016,0.955,0.));
#425=CARTESIAN_POINT('Origin',(0.,0.,0.));
#426=CARTESIAN_POINT('Origin',(0.0199999999999999,0.,0.));
#427=CARTESIAN_POINT('',(0.0399999999999999,0.995,0.));
#428=CARTESIAN_POINT('Origin',(0.0399999999999998,0.,0.));
#429=CARTESIAN_POINT('Origin',(0.363,0.,0.));
#430=CARTESIAN_POINT('',(0.686,0.995,0.));
#431=CARTESIAN_POINT('Origin',(0.686,0.,0.));
#432=CARTESIAN_POINT('Origin',(0.686,0.84,0.));
#433=CARTESIAN_POINT('',(0.686,0.685,0.));
#434=CARTESIAN_POINT('Origin',(0.686,0.,0.));
#435=CARTESIAN_POINT('Origin',(0.6865,0.,0.));
#436=CARTESIAN_POINT('',(0.687,0.685,0.));
#437=CARTESIAN_POINT('Origin',(0.687,0.,0.));
#438=CARTESIAN_POINT('Origin',(0.687,0.84,0.));
#439=CARTESIAN_POINT('',(0.687,0.995,0.));
#440=CARTESIAN_POINT('Origin',(0.687,0.,0.));
#441=CARTESIAN_POINT('Origin',(0.900416697508022,0.,0.));
#442=CARTESIAN_POINT('',(1.11383339501604,0.995,0.));
#443=CARTESIAN_POINT('Origin',(1.11383339501604,0.,0.));
#444=CARTESIAN_POINT('Origin',(1.22641669750802,0.,0.));
#445=CARTESIAN_POINT('',(1.339,0.865,0.));
#446=CARTESIAN_POINT('Origin',(1.339,0.,0.));
#447=CARTESIAN_POINT('Origin',(1.3515,0.,0.));
#448=CARTESIAN_POINT('',(1.364,0.865,0.));
#449=CARTESIAN_POINT('Origin',(1.364,0.,0.));
#450=CARTESIAN_POINT('Origin',(1.364,0.78,0.));
#451=CARTESIAN_POINT('',(1.364,0.695,0.));
#452=CARTESIAN_POINT('Origin',(1.364,0.,0.));
#453=CARTESIAN_POINT('Origin',(1.333,0.,0.));
#454=CARTESIAN_POINT('Origin',(1.302,0.6225,0.));
#455=CARTESIAN_POINT('',(1.302,0.55,0.));
#456=CARTESIAN_POINT('Origin',(1.302,0.,0.));
#457=CARTESIAN_POINT('Origin',(1.366,0.,0.));
#458=CARTESIAN_POINT('',(1.43,0.55,0.));
#459=CARTESIAN_POINT('Origin',(1.43,0.,0.));
#460=CARTESIAN_POINT('Origin',(1.45020725942164,0.,0.));
#461=CARTESIAN_POINT('',(1.47041451884327,0.62,0.));
#462=CARTESIAN_POINT('Origin',(1.47041451884327,0.,0.));
#463=CARTESIAN_POINT('Origin',(1.7217344849976,0.,0.));
#464=CARTESIAN_POINT('',(1.97305445115192,0.604350551567007,0.));
#465=CARTESIAN_POINT('Origin',(1.97305445115192,0.,0.));
#466=CARTESIAN_POINT('Origin',(1.98152722557596,0.,0.));
#467=CARTESIAN_POINT('',(1.99,0.575,0.));
#468=CARTESIAN_POINT('Origin',(1.99,0.,0.));
#469=CARTESIAN_POINT('Origin',(2.02,0.,0.));
#470=CARTESIAN_POINT('',(2.05,0.575,0.));
#471=CARTESIAN_POINT('Origin',(2.05,0.,0.));
#472=CARTESIAN_POINT('Origin',(2.06,0.,0.));
#473=CARTESIAN_POINT('',(2.07,0.555,0.));
#474=CARTESIAN_POINT('Origin',(2.07,0.,0.));
#475=CARTESIAN_POINT('Origin',(2.07,0.2775,0.));
#476=CARTESIAN_POINT('Origin',(1.3715,0.,0.));
#477=UNCERTAINTY_MEASURE_WITH_UNIT(LENGTH_MEASURE(0.000393700787401575),
#479,'DISTANCE_ACCURACY_VALUE',
'Maximum model space distance between geometric entities at asserted c
onnectivities');
#478=(
GEOMETRIC_REPRESENTATION_CONTEXT(3)
GLOBAL_UNCERTAINTY_ASSIGNED_CONTEXT((#477))
GLOBAL_UNIT_ASSIGNED_CONTEXT((#479,#485,#482))
REPRESENTATION_CONTEXT('','3D')
);
#479=(
CONVERSION_BASED_UNIT('__CONSTANT UNIT inch',#481)
LENGTH_UNIT()
NAMED_UNIT(#484)
);
#480=(
LENGTH_UNIT()
NAMED_UNIT(*)
SI_UNIT(.MILLI.,.METRE.)
);
#481=LENGTH_MEASURE_WITH_UNIT(LENGTH_MEASURE(25.4),#480);
#482=(
NAMED_UNIT(*)
SI_UNIT($,.STERADIAN.)
SOLID_ANGLE_UNIT()
);
#483=DIMENSIONAL_EXPONENTS(0.,0.,0.,0.,0.,0.,0.);
#484=DIMENSIONAL_EXPONENTS(1.,0.,0.,0.,0.,0.,0.);
#485=(
CONVERSION_BASED_UNIT('degree',#487)
NAMED_UNIT(#483)
PLANE_ANGLE_UNIT()
);
#486=(
NAMED_UNIT(*)
PLANE_ANGLE_UNIT()
SI_UNIT($,.RADIAN.)
);
#487=PLANE_ANGLE_MEASURE_WITH_UNIT(PLANE_ANGLE_MEASURE(0.01745329252),#486);
#488=SHAPE_DEFINITION_REPRESENTATION(#489,#490);
#489=PRODUCT_DEFINITION_SHAPE('',$,#492);
#490=SHAPE_REPRESENTATION('',(#267),#478);
#491=PRODUCT_DEFINITION_CONTEXT('3D Mechanical Parts',#495,'design');
#492=PRODUCT_DEFINITION('MIT-162P','MIT-162P',#493,#491);
#493=PRODUCT_DEFINITION_FORMATION('',$,#497);
#494=APPLICATION_PROTOCOL_DEFINITION('international standard',
'automotive_design',2009,#495);
#495=APPLICATION_CONTEXT(
'Core Data for Automotive Mechanical Design Process');
#496=PRODUCT_CONTEXT('3D Mechanical Parts',#495,'mechanical');
#497=PRODUCT('MIT-162P','MIT-162P',$,(#496));
#498=PRESENTATION_STYLE_ASSIGNMENT((#499));
#499=SURFACE_STYLE_USAGE(.BOTH.,#500);
#500=SURFACE_SIDE_STYLE($,(#501));
#501=SURFACE_STYLE_FILL_AREA(#502);
#502=FILL_AREA_STYLE($,(#503));
#503=FILL_AREA_STYLE_COLOUR($,#504);
#504=COLOUR_RGB('',0.63921568627451,0.63921568627451,0.686274509803922);
ENDSEC;
END-ISO-10303-21;
